  0
SECTION
  2
HEADER
  9
$EXTMIN
 10
0
 20
0
  9
$EXTMAX
 10
118800
 20
84000
  0
ENDSEC
  0
SECTION
  2
TABLES
  0
TABLE
  2
LTYPE
 70
     9
  0
LTYPE
  2
CONTINUOUS
 70
    64
  3
実線
 72
    65
 73
     0
 40
0.0
  0
LTYPE
  2
DASHED1
 70
    64
  3
--  --  --  --  --  --  --  --  
 72
    65
 73
     2
 40
2.5
 49
1.25
 49
-1.25
  0
LTYPE
  2
DASHED2
 70
    64
  3
----    ----    ----    ----    
 72
    65
 73
     2
 40
5.0
 49
2.5
 49
-2.5
  0
LTYPE
  2
DASHED3
 70
    64
  3
------  ------  ------  ------  
 72
    65
 73
     2
 40
5.0
 49
3.75
 49
-1.25
  0
LTYPE
  2
CENTER1
 70
    64
  3
----- - ----- - ----- - ----- - 
 72
    65
 73
     4
 40
10.0
 49
6.25
 49
-1.25
 49
1.25
 49
-1.25
  0
LTYPE
  2
CENTER2
 70
    64
  3
----------  --  ----------  --  
 72
    65
 73
     4
 40
20.0
 49
12.5
 49
-2.5
 49
2.5
 49
-2.5
  0
LTYPE
  2
PHANTOM1
 70
    64
  3
--- - - --- - - --- - - --- - - 
 72
    65
 73
     6
 40
10.0
 49
3.25
 49
-1.25
 49
1.25
 49
-1.25
 49
1.25
 49
-1.25
  0
LTYPE
  2
PHANTOM2
 70
    64
  3
--------  -  -  --------  -  -  
 72
    65
 73
     6
 40
20.0
 49
10.0
 49
-2.5
 49
1.25
 49
-2.5
 49
1.25
 49
-2.5
  0
LTYPE
  2
DOT
 70
    64
  3
-   -   -   -   -   -   -   -   
 72
    65
 73
     2
 40
2.5
 49
0.625
 49
-1.875
  0
ENDTAB
  0
TABLE
  2
STYLE
 70
    1
  0
STYLE
  2
STANDARD
 70
    64
 40
0.0
 41
1.0
 42
0.0
 50
0.0
 71
     0
  3
TXT
  4
BIGFONT
  0
ENDTAB
  0
TABLE
  2
LAYER
 70
   10
  0
LAYER
  2
0-0
 70
   64
 62
    7
  6
CONTINUOUS
  0
LAYER
  2
0-1
 70
   64
 62
    7
  6
CONTINUOUS
  0
LAYER
  2
0-2
 70
   64
 62
    7
  6
CONTINUOUS
  0
LAYER
  2
0-3
 70
   64
 62
    7
  6
CONTINUOUS
  0
LAYER
  2
0-4
 70
   64
 62
    7
  6
CONTINUOUS
  0
LAYER
  2
0-5
 70
   64
 62
    7
  6
CONTINUOUS
  0
LAYER
  2
0-8
 70
   64
 62
    7
  6
CONTINUOUS
  0
LAYER
  2
0-a
 70
   64
 62
    7
  6
CONTINUOUS
  0
LAYER
  2
0-b
 70
   64
 62
    7
  6
CONTINUOUS
  0
LAYER
  2
ADD_LINE
 70
   64
 62
    7
  6
CONTINUOUS
  0
ENDTAB
  0
ENDSEC
  0
SECTION
  2
ENTITIES
  0
LINE
  8
0-0
  6
CONTINUOUS
 62
    7
 10
38071.042
 20
30273.358
 11
74584.041
 21
30273.358
  0
LINE
  8
0-8
  6
CONTINUOUS
 62
    7
 10
38071.042
 20
30273.358
 11
57670.879
 21
57326.528
  0
LINE
  8
0-0
  6
CONTINUOUS
 62
    7
 10
74584.041
 20
30273.358
 11
57670.879
 21
57326.528
  0
LINE
  8
0-0
  6
CONTINUOUS
 62
    7
 10
38071.042
 20
30273.358
 11
38069.824
 21
47387.35
  0
LINE
  8
0-8
  6
CONTINUOUS
 62
    7
 10
57670.879
 20
57326.528
 11
38069.824
 21
47387.35
  0
LINE
  8
0-0
  6
CONTINUOUS
 62
    7
 10
38069.824
 20
47387.35
 11
44842.687
 21
57541.901
  0
LINE
  8
0-0
  6
CONTINUOUS
 62
    7
 10
57670.879
 20
57326.528
 11
44842.687
 21
57541.901
  0
LINE
  8
0-8
  6
DASHED1
 62
    4
 10
47553.359
 20
52196.21
 11
44842.691
 21
57541.905
  0
LINE
  8
0-8
  6
DASHED1
 62
    4
 10
46201.679
 20
41495.879
 11
38069.82
 21
47387.35
  0
LINE
  8
0-8
  6
DASHED1
 62
    4
 10
57670.876
 20
30273.358
 11
57670.876
 21
57326.528
  0
LINE
  8
0-0
  6
CONTINUOUS
 62
    7
 10
81660.098
 20
30273.358
 11
91966.794
 21
30273.358
  0
LINE
  8
0-0
  6
CENTER2
 62
    7
 10
38071.042
 20
24273.359
 11
91966.794
 21
24273.359
  0
LINE
  8
0-0
  6
CENTER2
 62
    7
 10
81873.155
 20
24273.361
 11
55760.919
 21
66040.767
  0
LINE
  8
0-0
  6
CONTINUOUS
 62
    4
 10
50914.285
 20
18273.36
 11
50914.285
 21
30273.358
  0
LINE
  8
0-0
  6
CONTINUOUS
 62
    4
 10
72650.886
 20
66719.153
 11
71069.606
 21
66475.132
  0
LINE
  8
0-0
  6
CONTINUOUS
 62
    4
 10
72345.848
 20
68695.758
 11
70764.568
 21
68451.723
  0
LINE
  8
0-0
  6
CONTINUOUS
 62
    4
 10
70764.568
 20
68451.723
 11
70945.143
 21
72526.947
  0
LINE
  8
0-0
  6
CONTINUOUS
 62
    4
 10
70776.27
 20
72703.252
 11
70715.274
 21
73098.578
  0
LINE
  8
0-0
  6
CONTINUOUS
 62
    4
 10
70715.274
 20
73098.578
 11
71053.004
 21
72745.96
  0
LINE
  8
0-0
  6
CONTINUOUS
 62
    4
 10
71053.004
 20
72745.96
 11
70992.001
 21
73141.279
  0
LINE
  8
0-1
  6
CONTINUOUS
 62
    7
 10
45584.422
 20
39874.411
 11
43198.924
 21
43690.09
  0
LINE
  8
0-1
  6
CONTINUOUS
 62
    7
 10
60847.143
 20
49416.395
 11
58461.649
 21
53232.071
  0
LINE
  8
0-1
  6
CONTINUOUS
 62
    7
 10
60847.143
 20
49416.395
 11
45584.422
 21
39874.411
  0
LINE
  8
0-1
  6
CONTINUOUS
 62
    7
 10
45584.422
 20
39874.411
 11
47969.923
 21
36058.731
  0
LINE
  8
0-1
  6
CONTINUOUS
 62
    7
 10
60847.143
 20
49416.395
 11
63232.637
 21
45600.715
  0
LINE
  8
0-1
  6
CONTINUOUS
 62
    7
 10
63232.637
 20
45600.715
 11
47969.923
 21
36058.731
  0
LINE
  8
0-2
  6
CONTINUOUS
 62
    7
 10
43198.924
 20
43690.09
 11
42138.707
 21
45385.944
  0
LINE
  8
0-2
  6
CONTINUOUS
 62
    7
 10
42138.707
 20
45385.944
 11
45615.214
 21
47559.399
  0
LINE
  8
0-2
  6
CONTINUOUS
 62
    7
 10
45615.214
 20
47559.399
 11
46675.435
 21
45863.542
  0
LINE
  8
0-2
  6
CONTINUOUS
 62
    7
 10
46675.435
 20
45863.542
 11
43198.924
 21
43690.09
  0
LINE
  8
0-1
  6
CONTINUOUS
 62
    7
 10
58461.649
 20
53232.071
 11
43198.924
 21
43690.09
  0
LINE
  8
0-3
  6
CONTINUOUS
 62
    7
 10
48765.084
 20
34786.839
 11
47969.923
 21
36058.731
  0
LINE
  8
0-3
  6
CONTINUOUS
 62
    7
 10
47969.923
 20
36058.731
 11
63232.637
 21
45600.712
  0
LINE
  8
0-3
  6
CONTINUOUS
 62
    7
 10
63232.637
 20
45600.712
 11
64027.802
 21
44328.816
  0
LINE
  8
0-3
  6
CONTINUOUS
 62
    7
 10
64027.802
 20
44328.816
 11
48765.084
 21
34786.839
  0
LINE
  8
0-4
  6
CONTINUOUS
 62
    7
 10
48765.084
 20
34786.839
 11
47969.923
 21
36058.731
  0
LINE
  8
0-4
  6
CONTINUOUS
 62
    7
 10
47969.923
 20
36058.731
 11
63232.637
 21
45600.712
  0
LINE
  8
0-4
  6
CONTINUOUS
 62
    7
 10
63232.637
 20
45600.712
 11
64027.802
 21
44328.816
  0
LINE
  8
0-4
  6
CONTINUOUS
 62
    7
 10
64027.802
 20
44328.816
 11
48765.084
 21
34786.839
  0
LINE
  8
0-5
  6
DASHED1
 62
    3
 10
33910.171
 20
50161.755
 11
40683.031
 21
60316.296
  0
LINE
  8
0-5
  6
DASHED1
 62
    3
 10
61330.369
 20
62265.794
 11
44926.62
 21
62541.198
  0
LINE
  8
0-5
  6
DASHED1
 62
    3
 10
29750.518
 20
52936.153
 11
36523.378
 21
63090.697
  0
LINE
  8
0-5
  6
DASHED1
 62
    3
 10
61414.301
 20
67265.09
 11
45010.552
 21
67540.494
  0
LINE
  8
0-5
  6
DASHED1
 62
    3
 10
90977.631
 20
28574.457
 11
69725.726
 21
62567.598
  0
LINE
  8
0-5
  6
DASHED1
 62
    3
 10
38071.539
 20
13273.36
 11
82498.342
 21
13273.36
  0
LINE
  8
0-5
  6
DASHED1
 62
    3
 10
28071.541
 20
23272.646
 11
28069.824
 21
47386.643
  0
LINE
  8
0-5
  6
DASHED1
 62
    3
 10
33071.542
 20
23273.004
 11
33069.824
 21
47387
  0
LINE
  8
0-0
  6
CONTINUOUS
 62
    7
 10
38071.546
 20
18273.36
 11
91966.794
 21
18273.36
  0
LINE
  8
0-5
  6
DASHED1
 62
    3
 10
86737.986
 20
25923.912
 11
65486.081
 21
59917.044
  0
LINE
  8
0-5
  6
DASHED1
 62
    3
 10
82498.335
 20
18273.36
 11
38071.042
 21
18273.36
  0
LINE
  8
0-5
  6
DASHED2
 62
    3
 10
91966.794
 20
23273.359
 11
38071.182
 21
23273.359
  0
LINE
  8
0-0
  6
CONTINUOUS
 62
    4
 10
72986.068
 20
59301.908
 11
70945.143
 21
72526.947
  0
LINE
  8
0-0
  6
CONTINUOUS
 62
    7
 10
81660.098
 20
30273.358
 11
58304.71
 21
67631.103
  0
LINE
  8
0-0
  6
CONTINUOUS
 62
    4
 10
68901.858
 20
39362.198
 11
73989.426
 21
42542.858
  0
LINE
  8
0-a
  6
CONTINUOUS
 62
    2
 10
47970.077
 20
36058.819
 11
40570.921
 21
39975.84
  0
LINE
  8
0-a
  6
CONTINUOUS
 62
    2
 10
40570.921
 20
39975.84
 11
39831.993
 21
39516.04
  0
LINE
  8
0-a
  6
CONTINUOUS
 62
    2
 10
39831.993
 20
39516.04
 11
30261.957
 21
44583.217
  0
LINE
  8
0-a
  6
CONTINUOUS
 62
    2
 10
30261.957
 20
44583.217
 11
29469.914
 21
45851.018
  0
LINE
  8
0-a
  6
CONTINUOUS
 62
    2
 10
29469.914
 20
45851.018
 11
17979.63
 21
51932.988
  0
LINE
  8
0-a
  6
CONTINUOUS
 62
    2
 10
17979.63
 20
51932.988
 11
4109.2061
 21
61829.342
  0
LINE
  8
0-a
  6
CONTINUOUS
 62
    2
 10
4109.2061
 20
61829.342
 11
6323.0208
 21
63212.928
  0
LINE
  8
0-a
  6
CONTINUOUS
 62
    2
 10
6323.0208
 20
63212.928
 11
-14547.718
 21
74261.372
  0
LINE
  8
0-a
  6
CONTINUOUS
 62
    2
 10
-14547.718
 20
74261.372
 11
-15607.959
 21
75958.864
  0
LINE
  8
0-a
  6
CONTINUOUS
 62
    2
 10
-15607.959
 20
75958.864
 11
-12132.796
 21
78131.168
  0
LINE
  8
0-a
  6
CONTINUOUS
 62
    2
 10
-12132.796
 20
78131.168
 11
10782.545
 21
65998.934
  0
LINE
  8
0-a
  6
CONTINUOUS
 62
    2
 10
10782.545
 20
65998.934
 11
19372.668
 21
71371.69
  0
LINE
  8
0-a
  6
CONTINUOUS
 62
    2
 10
19372.668
 20
71371.69
 11
28473.048
 21
69107.244
  0
LINE
  8
0-a
  6
CONTINUOUS
 62
    2
 10
28473.048
 20
69107.244
 11
58461.229
 21
53232.729
  0
LINE
  8
0-a
  6
CONTINUOUS
 62
    2
 10
47970.077
 20
36058.819
 11
45615.252
 21
37934.785
  0
LINE
  8
0-a
  6
CONTINUOUS
 62
    2
 10
45615.252
 20
37934.785
 11
45164.296
 21
37654.02
  0
LINE
  8
0-a
  6
CONTINUOUS
 62
    2
 10
45164.296
 20
37654.02
 11
41306.573
 21
40727.531
  0
LINE
  8
0-a
  6
CONTINUOUS
 62
    2
 10
41306.573
 20
40727.531
 11
40511.909
 21
41997.246
  0
LINE
  8
0-a
  6
CONTINUOUS
 62
    2
 10
40511.909
 20
41997.246
 11
40514.18
 21
41997.596
  0
LINE
  8
0-a
  6
CONTINUOUS
 62
    2
 10
40514.18
 20
41997.596
 11
35881.457
 21
45687.132
  0
LINE
  8
0-a
  6
CONTINUOUS
 62
    2
 10
35881.457
 20
45687.132
 11
28864.064
 21
53190.357
  0
LINE
  8
0-a
  6
CONTINUOUS
 62
    2
 10
28864.064
 20
53190.357
 11
30214.665
 21
54032.303
  0
LINE
  8
0-a
  6
CONTINUOUS
 62
    2
 10
30214.665
 20
54032.303
 11
19917.631
 21
62231.463
  0
LINE
  8
0-a
  6
CONTINUOUS
 62
    2
 10
19917.631
 20
62231.463
 11
18857.387
 21
63928.955
  0
LINE
  8
0-a
  6
CONTINUOUS
 62
    2
 10
18857.387
 20
63928.955
 11
22334.818
 21
66101.616
  0
LINE
  8
0-a
  6
CONTINUOUS
 62
    2
 10
22334.818
 20
66101.616
 11
34290.872
 21
56580.479
  0
LINE
  8
0-a
  6
CONTINUOUS
 62
    2
 10
34290.872
 20
56580.479
 11
44127.518
 21
62732.705
  0
LINE
  8
0-a
  6
CONTINUOUS
 62
    2
 10
44127.518
 20
62732.705
 11
46370.341
 21
62860.689
  0
LINE
  8
0-a
  6
CONTINUOUS
 62
    2
 10
46370.341
 20
62860.689
 11
58461.229
 21
53232.729
  0
LINE
  8
0-a
  6
CONTINUOUS
 62
    2
 10
47970.077
 20
36058.819
 11
46957.645
 21
37311.176
  0
LINE
  8
0-a
  6
CONTINUOUS
 62
    2
 10
46957.645
 20
37311.176
 11
46803.027
 21
37215.378
  0
LINE
  8
0-a
  6
CONTINUOUS
 62
    2
 10
46803.027
 20
37215.378
 11
44697.906
 21
39819.087
  0
LINE
  8
0-a
  6
CONTINUOUS
 62
    2
 10
44697.906
 20
39819.087
 11
43903.249
 21
41088.806
  0
LINE
  8
0-a
  6
CONTINUOUS
 62
    2
 10
43903.249
 20
41088.806
 11
43905.513
 21
41089.156
  0
LINE
  8
0-a
  6
CONTINUOUS
 62
    2
 10
43905.513
 20
41089.156
 11
41376.441
 21
44214.547
  0
LINE
  8
0-a
  6
CONTINUOUS
 62
    2
 10
41376.441
 20
44214.547
 11
36464.961
 21
51153.977
  0
LINE
  8
0-a
  6
CONTINUOUS
 62
    2
 10
36464.961
 20
51153.977
 11
36606.397
 21
51846.452
  0
LINE
  8
0-a
  6
CONTINUOUS
 62
    2
 10
36606.397
 20
51846.452
 11
36608.665
 21
51846.802
  0
LINE
  8
0-a
  6
CONTINUOUS
 62
    2
 10
36608.665
 20
51846.802
 11
30502.835
 21
59397.878
  0
LINE
  8
0-a
  6
CONTINUOUS
 62
    2
 10
30502.835
 20
59397.878
 11
29442.593
 21
61095.363
  0
LINE
  8
0-a
  6
CONTINUOUS
 62
    2
 10
29442.593
 20
61095.363
 11
32917.757
 21
63267.681
  0
LINE
  8
0-a
  6
CONTINUOUS
 62
    2
 10
32917.757
 20
63267.681
 11
40291.265
 21
54148.588
  0
LINE
  8
0-a
  6
CONTINUOUS
 62
    2
 10
40291.265
 20
54148.588
 11
51865.325
 21
61388.104
  0
LINE
  8
0-a
  6
CONTINUOUS
 62
    2
 10
51865.325
 20
61388.104
 11
58461.229
 21
53232.729
  0
LINE
  8
0-a
  6
CONTINUOUS
 62
    2
 10
42139.795
 20
45388.218
 11
35334.631
 21
60312.936
  0
LINE
  8
0-a
  6
CONTINUOUS
 62
    2
 10
35334.631
 20
60312.936
 11
38812.066
 21
62485.598
  0
LINE
  8
0-a
  6
CONTINUOUS
 62
    2
 10
38812.066
 20
62485.598
 11
39871.961
 21
60790.374
  0
LINE
  8
0-a
  6
CONTINUOUS
 62
    2
 10
39871.961
 20
60790.374
 11
43144.85
 21
53611.995
  0
LINE
  8
0-a
  6
CONTINUOUS
 62
    2
 10
43144.85
 20
53611.995
 11
54926.346
 21
60980.985
  0
LINE
  8
0-a
  6
CONTINUOUS
 62
    2
 10
54926.346
 20
60980.985
 11
55959.516
 21
60135.616
  0
LINE
  8
0-a
  6
CONTINUOUS
 62
    2
 10
55959.516
 20
60135.616
 11
59698.654
 21
53349.434
  0
LINE
  8
0-a
  6
CONTINUOUS
 62
    2
 10
59698.654
 20
53349.434
 11
61056.441
 21
50370.483
  0
LINE
  8
0-a
  6
CONTINUOUS
 62
    2
 10
61056.441
 20
50370.483
 11
61847.435
 21
49109.485
  0
LINE
  8
0-a
  6
CONTINUOUS
 62
    2
 10
61847.435
 20
49109.485
 11
62974.122
 21
46635.565
  0
LINE
  8
0-a
  6
CONTINUOUS
 62
    2
 10
62974.122
 20
46635.565
 11
62806.95
 21
46530.874
  0
LINE
  8
0-a
  6
CONTINUOUS
 62
    2
 10
62806.95
 20
46530.874
 11
63231.272
 21
45600.824
  0
LINE
  8
0-a
  6
CONTINUOUS
 62
    2
 10
42139.795
 20
45388.218
 11
39801.803
 21
60538.206
  0
LINE
  8
0-a
  6
CONTINUOUS
 62
    2
 10
39801.803
 20
60538.206
 11
43279.238
 21
62710.861
  0
LINE
  8
0-a
  6
CONTINUOUS
 62
    2
 10
43279.238
 20
62710.861
 11
44339.129
 21
61015.644
  0
LINE
  8
0-a
  6
CONTINUOUS
 62
    2
 10
44339.129
 20
61015.644
 11
45463.346
 21
53730.768
  0
LINE
  8
0-a
  6
CONTINUOUS
 62
    2
 10
45463.346
 20
53730.768
 11
57247.114
 21
61100.115
  0
LINE
  8
0-a
  6
CONTINUOUS
 62
    2
 10
57247.114
 20
61100.115
 11
59167.261
 21
60296.482
  0
LINE
  8
0-a
  6
CONTINUOUS
 62
    2
 10
59167.261
 20
60296.482
 11
62017.154
 21
53468.207
  0
LINE
  8
0-a
  6
CONTINUOUS
 62
    2
 10
62017.154
 20
53468.207
 11
62482.371
 21
50453.624
  0
LINE
  8
0-a
  6
CONTINUOUS
 62
    2
 10
62482.371
 20
50453.624
 11
63277.382
 21
49181.641
  0
LINE
  8
0-a
  6
CONTINUOUS
 62
    2
 10
63277.382
 20
49181.641
 11
63664.945
 21
46670.241
  0
LINE
  8
0-a
  6
CONTINUOUS
 62
    2
 10
63664.945
 20
46670.241
 11
63118.987
 21
46328.403
  0
LINE
  8
0-a
  6
CONTINUOUS
 62
    2
 10
63118.987
 20
46328.403
 11
63231.272
 21
45600.824
  0
LINE
  8
0-a
  6
CONTINUOUS
 62
    2
 10
42139.795
 20
45388.218
 11
44129.061
 21
61670.115
  0
LINE
  8
0-a
  6
CONTINUOUS
 62
    2
 10
44129.061
 20
61670.115
 11
47601.96
 21
63842.076
  0
LINE
  8
0-a
  6
CONTINUOUS
 62
    2
 10
47601.96
 20
63842.076
 11
48664.12
 21
62147.202
  0
LINE
  8
0-a
  6
CONTINUOUS
 62
    2
 10
48664.12
 20
62147.202
 11
47707.527
 21
54316.12
  0
LINE
  8
0-a
  6
CONTINUOUS
 62
    2
 10
47707.527
 20
54316.12
 11
59493.555
 21
61685.813
  0
LINE
  8
0-a
  6
CONTINUOUS
 62
    2
 10
59493.555
 20
61685.813
 11
62274.276
 21
61110.124
  0
LINE
  8
0-a
  6
CONTINUOUS
 62
    2
 10
62274.276
 20
61110.124
 11
64265.866
 21
54054.252
  0
LINE
  8
0-a
  6
CONTINUOUS
 62
    2
 10
64265.866
 20
54054.252
 11
63867.895
 21
50813.639
  0
LINE
  8
0-a
  6
CONTINUOUS
 62
    2
 10
63867.895
 20
50813.639
 11
63869.813
 21
50816.257
  0
LINE
  8
0-a
  6
CONTINUOUS
 62
    2
 10
63869.813
 20
50816.257
 11
64664.824
 21
49544.27
  0
LINE
  8
0-a
  6
CONTINUOUS
 62
    2
 10
64664.824
 20
49544.27
 11
64334.086
 21
46845.444
  0
LINE
  8
0-a
  6
CONTINUOUS
 62
    2
 10
64334.086
 20
46845.444
 11
63303.355
 21
46201.378
  0
LINE
  8
0-a
  6
CONTINUOUS
 62
    2
 10
63303.355
 20
46201.378
 11
63231.272
 21
45600.824
  0
LINE
  8
0-a
  6
CONTINUOUS
 62
    2
 10
42139.795
 20
45388.218
 11
49508.848
 21
64192.041
  0
LINE
  8
0-a
  6
CONTINUOUS
 62
    2
 10
49508.848
 20
64192.041
 11
52986.276
 21
66364.702
  0
LINE
  8
0-a
  6
CONTINUOUS
 62
    2
 10
52986.276
 20
66364.702
 11
54046.171
 21
64669.478
  0
LINE
  8
0-a
  6
CONTINUOUS
 62
    2
 10
54046.171
 20
64669.478
 11
50501.144
 21
55626.741
  0
LINE
  8
0-a
  6
CONTINUOUS
 62
    2
 10
50501.144
 20
55626.741
 11
62289.443
 21
62996.784
  0
LINE
  8
0-a
  6
CONTINUOUS
 62
    2
 10
62289.443
 20
62996.784
 11
66141.756
 21
62920.635
  0
LINE
  8
0-a
  6
CONTINUOUS
 62
    2
 10
66141.756
 20
62920.635
 11
67059.473
 21
55364.876
  0
LINE
  8
0-a
  6
CONTINUOUS
 62
    2
 10
67059.473
 20
55364.876
 11
65590.611
 21
51620.191
  0
LINE
  8
0-a
  6
CONTINUOUS
 62
    2
 10
65590.611
 20
51620.191
 11
65594.797
 21
51623.155
  0
LINE
  8
0-a
  6
CONTINUOUS
 62
    2
 10
65594.797
 20
51623.155
 11
66389.808
 21
50351.172
  0
LINE
  8
0-a
  6
CONTINUOUS
 62
    2
 10
66389.808
 20
50351.172
 11
65167.549
 21
47233.973
  0
LINE
  8
0-a
  6
CONTINUOUS
 62
    2
 10
65167.549
 20
47233.973
 11
63449.145
 21
46158.897
  0
LINE
  8
0-a
  6
CONTINUOUS
 62
    2
 10
63449.145
 20
46158.897
 11
63231.272
 21
45600.824
  0
LINE
  8
0-a
  6
CONTINUOUS
 62
    2
 10
42139.795
 20
45388.218
 11
58745.102
 21
70084.537
  0
LINE
  8
0-a
  6
CONTINUOUS
 62
    2
 10
58745.102
 20
70084.537
 11
62222.533
 21
72257.184
  0
LINE
  8
0-a
  6
CONTINUOUS
 62
    2
 10
62222.533
 20
72257.184
 11
63282.421
 21
70561.968
  0
LINE
  8
0-a
  6
CONTINUOUS
 62
    2
 10
63282.421
 20
70561.968
 11
55296.545
 21
58687.367
  0
LINE
  8
0-a
  6
CONTINUOUS
 62
    2
 10
55296.545
 20
58687.367
 11
67087.112
 21
66057.739
  0
LINE
  8
0-a
  6
CONTINUOUS
 62
    2
 10
67087.112
 20
66057.739
 11
72775.139
 21
67153.68
  0
LINE
  8
0-a
  6
CONTINUOUS
 62
    2
 10
72775.139
 20
67153.68
 11
71857.149
 21
58425.849
  0
LINE
  8
0-a
  6
CONTINUOUS
 62
    2
 10
71857.149
 20
58425.849
 11
68548.044
 21
53508.385
  0
LINE
  8
0-a
  6
CONTINUOUS
 62
    2
 10
68548.044
 20
53508.385
 11
68554.49
 21
53511.706
  0
LINE
  8
0-a
  6
CONTINUOUS
 62
    2
 10
68554.49
 20
53511.706
 11
69349.501
 21
52239.719
  0
LINE
  8
0-a
  6
CONTINUOUS
 62
    2
 10
69349.501
 20
52239.719
 11
66595.536
 21
48145.878
  0
LINE
  8
0-a
  6
CONTINUOUS
 62
    2
 10
66595.536
 20
48145.878
 11
63742.683
 21
46361.991
  0
LINE
  8
0-a
  6
CONTINUOUS
 62
    2
 10
63742.683
 20
46361.991
 11
63231.272
 21
45600.824
  0
LINE
  8
0-a
  6
CONTINUOUS
 62
    2
 10
42139.795
 20
45388.218
 11
87982.677
 21
91945.251
  0
LINE
  8
0-a
  6
CONTINUOUS
 62
    2
 10
87982.677
 20
91945.251
 11
91460.115
 21
94117.913
  0
LINE
  8
0-a
  6
CONTINUOUS
 62
    2
 10
91460.115
 20
94117.913
 11
92519.989
 21
92422.682
  0
LINE
  8
0-a
  6
CONTINUOUS
 62
    2
 10
92519.989
 20
92422.682
 11
70476.517
 21
70033.85
  0
LINE
  8
0-a
  6
CONTINUOUS
 62
    2
 10
70476.517
 20
70033.85
 11
82270.916
 21
77409.465
  0
LINE
  8
0-a
  6
CONTINUOUS
 62
    2
 10
82270.916
 20
77409.465
 11
93773.967
 21
82853.5
  0
LINE
  8
0-a
  6
CONTINUOUS
 62
    2
 10
93773.967
 20
82853.5
 11
87040.953
 21
69777.567
  0
LINE
  8
0-a
  6
CONTINUOUS
 62
    2
 10
87040.953
 20
69777.567
 11
77918.734
 21
60514.62
  0
LINE
  8
0-a
  6
CONTINUOUS
 62
    2
 10
77918.734
 20
60514.62
 11
77922.92
 21
60517.587
  0
LINE
  8
0-a
  6
CONTINUOUS
 62
    2
 10
77922.92
 20
60517.587
 11
78717.93
 21
59245.601
  0
LINE
  8
0-a
  6
CONTINUOUS
 62
    2
 10
78717.93
 20
59245.601
 11
71118.431
 21
51528.777
  0
LINE
  8
0-a
  6
CONTINUOUS
 62
    2
 10
71118.431
 20
51528.777
 11
65787.326
 21
48195.19
  0
LINE
  8
0-a
  6
CONTINUOUS
 62
    2
 10
65787.326
 20
48195.19
 11
63231.272
 21
45600.824
  0
LINE
  8
0-b
  6
CONTINUOUS
 62
    6
 10
44216.948
 20
40574.858
 11
44119.336
 21
40725.172
  0
LINE
  8
0-b
  6
CONTINUOUS
 62
    6
 10
44119.336
 20
40725.172
 11
44080.429
 21
40793.584
  0
LINE
  8
0-b
  6
CONTINUOUS
 62
    6
 10
43326.803
 20
41831.772
 11
43214.896
 21
41960.288
  0
LINE
  8
0-b
  6
CONTINUOUS
 62
    6
 10
43214.896
 20
41960.288
 11
43144.22
 21
42041.459
  0
LINE
  8
0-b
  6
CONTINUOUS
 62
    6
 10
42472.217
 20
42858.254
 11
42260.78
 21
43127.604
  0
LINE
  8
0-b
  6
CONTINUOUS
 62
    6
 10
42260.78
 20
43127.604
 11
42141.853
 21
43279.126
  0
LINE
  8
0-b
  6
CONTINUOUS
 62
    6
 10
41617.228
 20
43887.375
 11
41613.879
 21
43891.035
  0
LINE
  8
0-b
  6
CONTINUOUS
 62
    6
 10
41613.879
 20
43891.035
 11
41611.639
 21
43893.471
  0
LINE
  8
0-b
  6
CONTINUOUS
 62
    6
 10
41611.639
 20
43893.471
 11
41604.965
 21
43902.391
  0
LINE
  8
0-b
  6
CONTINUOUS
 62
    6
 10
41604.965
 20
43902.391
 11
41316.823
 21
44308.782
  0
LINE
  8
0-b
  6
CONTINUOUS
 62
    6
 10
41316.823
 20
44308.782
 11
41166.393
 21
44520.936
  0
LINE
  8
0-b
  6
CONTINUOUS
 62
    6
 10
41166.393
 20
44520.936
 11
41020.198
 21
44727.12
  0
LINE
  8
0-b
  6
CONTINUOUS
 62
    6
 10
41020.198
 20
44727.12
 11
40727.821
 21
45139.488
  0
LINE
  8
0-b
  6
CONTINUOUS
 62
    6
 10
40727.821
 20
45139.488
 11
40723.44
 21
45145.276
  0
LINE
  8
0-b
  6
CONTINUOUS
 62
    6
 10
40723.44
 20
45145.276
 11
40721.092
 21
45148.394
  0
LINE
  8
0-b
  6
CONTINUOUS
 62
    6
 10
40721.092
 20
45148.394
 11
40713.242
 21
45158.784
  0
LINE
  8
0-b
  6
CONTINUOUS
 62
    6
 10
40713.242
 20
45158.784
 11
40417.247
 21
45550.539
  0
LINE
  8
0-b
  6
CONTINUOUS
 62
    6
 10
40417.247
 20
45550.539
 11
40250.013
 21
45771.866
  0
LINE
  8
0-b
  6
CONTINUOUS
 62
    6
 10
40250.013
 20
45771.866
 11
40119.971
 21
45967.985
  0
LINE
  8
0-b
  6
CONTINUOUS
 62
    6
 10
40119.971
 20
45967.985
 11
39838.219
 21
46392.895
  0
LINE
  8
0-b
  6
CONTINUOUS
 62
    6
 10
39838.219
 20
46392.895
 11
39833.274
 21
46399.87
  0
LINE
  8
0-b
  6
CONTINUOUS
 62
    6
 10
39833.274
 20
46399.87
 11
39830.803
 21
46403.355
  0
LINE
  8
0-b
  6
CONTINUOUS
 62
    6
 10
39830.803
 20
46403.355
 11
39823.388
 21
46413.812
  0
LINE
  8
0-b
  6
CONTINUOUS
 62
    6
 10
39823.388
 20
46413.812
 11
39536.656
 21
46818.211
  0
LINE
  8
0-b
  6
CONTINUOUS
 62
    6
 10
39536.656
 20
46818.211
 11
39385.876
 21
47030.866
  0
LINE
  8
0-b
  6
CONTINUOUS
 62
    6
 10
39385.876
 20
47030.866
 11
39240.038
 21
47236.553
  0
LINE
  8
0-b
  6
CONTINUOUS
 62
    6
 10
39240.038
 20
47236.553
 11
38948.364
 21
47647.923
  0
LINE
  8
0-b
  6
CONTINUOUS
 62
    6
 10
38948.364
 20
47647.923
 11
38943.231
 21
47654.639
  0
LINE
  8
0-b
  6
CONTINUOUS
 62
    6
 10
38943.231
 20
47654.639
 11
38940.435
 21
47658.299
  0
LINE
  8
0-b
  6
CONTINUOUS
 62
    6
 10
38940.435
 20
47658.299
 11
38930.909
 21
47670.757
  0
LINE
  8
0-b
  6
CONTINUOUS
 62
    6
 10
38930.909
 20
47670.757
 11
38635.337
 21
48057.589
  0
LINE
  8
0-b
  6
CONTINUOUS
 62
    6
 10
38635.337
 20
48057.589
 11
38464.596
 21
48281.043
  0
LINE
  8
0-b
  6
CONTINUOUS
 62
    6
 10
38464.596
 20
48281.043
 11
38337.806
 21
48474.678
  0
LINE
  8
0-b
  6
CONTINUOUS
 62
    6
 10
38337.806
 20
48474.678
 11
38058.86
 21
48900.683
  0
LINE
  8
0-b
  6
CONTINUOUS
 62
    6
 10
38058.86
 20
48900.683
 11
38053.163
 21
48909.376
  0
LINE
  8
0-b
  6
CONTINUOUS
 62
    6
 10
38053.163
 20
48909.376
 11
38050.577
 21
48913.327
  0
LINE
  8
0-b
  6
CONTINUOUS
 62
    6
 10
38050.577
 20
48913.327
 11
38041.061
 21
48925.782
  0
LINE
  8
0-b
  6
CONTINUOUS
 62
    6
 10
38041.061
 20
48925.782
 11
37745.483
 21
49312.617
  0
LINE
  8
0-b
  6
CONTINUOUS
 62
    6
 10
37745.483
 20
49312.617
 11
37574.742
 21
49536.071
  0
LINE
  8
0-b
  6
CONTINUOUS
 62
    6
 10
37574.742
 20
49536.071
 11
37447.948
 21
49729.706
  0
LINE
  8
0-b
  6
CONTINUOUS
 62
    6
 10
37447.948
 20
49729.706
 11
37169.009
 21
50155.707
  0
LINE
  8
0-b
  6
CONTINUOUS
 62
    6
 10
37169.009
 20
50155.707
 11
37163.07
 21
50164.075
  0
LINE
  8
0-b
  6
CONTINUOUS
 62
    6
 10
37163.07
 20
50164.075
 11
37160.106
 21
50168.26
  0
LINE
  8
0-b
  6
CONTINUOUS
 62
    6
 10
37160.106
 20
50168.26
 11
37151.207
 21
50180.809
  0
LINE
  8
0-b
  6
CONTINUOUS
 62
    6
 10
37151.207
 20
50180.809
 11
36866.452
 21
50582.42
  0
LINE
  8
0-b
  6
CONTINUOUS
 62
    6
 10
36866.452
 20
50582.42
 11
36715.179
 21
50795.771
  0
LINE
  8
0-b
  6
CONTINUOUS
 62
    6
 10
36715.179
 20
50795.771
 11
36616.798
 21
51064.862
  0
LINE
  8
0-b
  6
CONTINUOUS
 62
    6
 10
36616.798
 20
51064.862
 11
36561.582
 21
51215.879
  0
LINE
  8
0-b
  6
CONTINUOUS
 62
    6
 10
36561.582
 20
51215.879
 11
36496.156
 21
51458.147
  0
LINE
  8
0-b
  6
CONTINUOUS
 62
    6
 10
36496.156
 20
51458.147
 11
36405.329
 21
51599.432
  0
LINE
  8
0-b
  6
CONTINUOUS
 62
    6
 10
36405.329
 20
51599.432
 11
36376.192
 21
51954.804
  0
LINE
  8
0-b
  6
CONTINUOUS
 62
    6
 10
36376.192
 20
51954.804
 11
36361.53
 21
52133.548
  0
LINE
  8
0-b
  6
CONTINUOUS
 62
    6
 10
36361.53
 20
52133.548
 11
36274.056
 21
52243.46
  0
LINE
  8
0-b
  6
CONTINUOUS
 62
    6
 10
36274.056
 20
52243.46
 11
36120.956
 21
52435.807
  0
LINE
  8
0-b
  6
CONTINUOUS
 62
    6
 10
36120.956
 20
52435.807
 11
35943.09
 21
52614.919
  0
LINE
  8
0-b
  6
CONTINUOUS
 62
    6
 10
35943.09
 20
52614.919
 11
35852.722
 21
52751.204
  0
LINE
  8
0-b
  6
CONTINUOUS
 62
    6
 10
35852.722
 20
52751.204
 11
35643.088
 21
53028.648
  0
LINE
  8
0-b
  6
CONTINUOUS
 62
    6
 10
35643.088
 20
53028.648
 11
35530.817
 21
53177.237
  0
LINE
  8
0-b
  6
CONTINUOUS
 62
    6
 10
35530.817
 20
53177.237
 11
35381.64
 21
53374.679
  0
LINE
  8
0-b
  6
CONTINUOUS
 62
    6
 10
35381.64
 20
53374.679
 11
35336.885
 21
53433.905
  0
LINE
  8
0-b
  6
CONTINUOUS
 62
    6
 10
35336.885
 20
53433.905
 11
35253.778
 21
53543.905
  0
LINE
  8
0-b
  6
CONTINUOUS
 62
    6
 10
35253.778
 20
53543.905
 11
35014.395
 21
53816.929
  0
LINE
  8
0-b
  6
CONTINUOUS
 62
    6
 10
35014.395
 20
53816.929
 11
34862.061
 21
53990.673
  0
LINE
  8
0-b
  6
CONTINUOUS
 62
    6
 10
34862.061
 20
53990.673
 11
34696.909
 21
54206.799
  0
LINE
  8
0-b
  6
CONTINUOUS
 62
    6
 10
34696.909
 20
54206.799
 11
34394.153
 21
54603.034
  0
LINE
  8
0-b
  6
CONTINUOUS
 62
    6
 10
34394.153
 20
54603.034
 11
34388.812
 21
54609.459
  0
LINE
  8
0-b
  6
CONTINUOUS
 62
    6
 10
34388.812
 20
54609.459
 11
34385.6
 21
54613.319
  0
LINE
  8
0-b
  6
CONTINUOUS
 62
    6
 10
34385.6
 20
54613.319
 11
34372.785
 21
54628.745
  0
LINE
  8
0-b
  6
CONTINUOUS
 62
    6
 10
34372.785
 20
54628.745
 11
34068.233
 21
54995.101
  0
LINE
  8
0-b
  6
CONTINUOUS
 62
    6
 10
34068.233
 20
54995.101
 11
33872.681
 21
55230.338
  0
LINE
  8
0-b
  6
CONTINUOUS
 62
    6
 10
33872.681
 20
55230.338
 11
33747.647
 21
55380.729
  0
LINE
  8
0-b
  6
CONTINUOUS
 62
    6
 10
33747.647
 20
55380.729
 11
33539.276
 21
55631.402
  0
LINE
  8
0-b
  6
CONTINUOUS
 62
    6
 10
33539.276
 20
55631.402
 11
33427.075
 21
55766.375
  0
LINE
  8
0-b
  6
CONTINUOUS
 62
    6
 10
33427.075
 20
55766.375
 11
33359.755
 21
55847.36
  0
LINE
  8
0-b
  6
CONTINUOUS
 62
    6
 10
33359.755
 20
55847.36
 11
33106.499
 21
56152.01
  0
LINE
  8
0-b
  6
CONTINUOUS
 62
    6
 10
33106.499
 20
56152.01
 11
33090.468
 21
56171.292
  0
LINE
  8
0-b
  6
CONTINUOUS
 62
    6
 10
33090.468
 20
56171.292
 11
32861.184
 21
56466.594
  0
LINE
  8
0-b
  6
CONTINUOUS
 62
    6
 10
32861.184
 20
56466.594
 11
32795.673
 21
56550.964
  0
LINE
  8
0-b
  6
CONTINUOUS
 62
    6
 10
32795.673
 20
56550.964
 11
32677.757
 21
56702.832
  0
LINE
  8
0-b
  6
CONTINUOUS
 62
    6
 10
32677.757
 20
56702.832
 11
32485.365
 21
56950.618
  0
LINE
  8
0-b
  6
CONTINUOUS
 62
    6
 10
32485.365
 20
56950.618
 11
32378.479
 21
57088.278
  0
LINE
  8
0-b
  6
CONTINUOUS
 62
    6
 10
32378.479
 20
57088.278
 11
32193.695
 21
57375.717
  0
LINE
  8
0-b
  6
CONTINUOUS
 62
    6
 10
32193.695
 20
57375.717
 11
32126.046
 21
57480.944
  0
LINE
  8
0-b
  6
CONTINUOUS
 62
    6
 10
32126.046
 20
57480.944
 11
32335.246
 21
57568.928
  0
LINE
  8
0-b
  6
CONTINUOUS
 62
    6
 10
32335.246
 20
57568.928
 11
32531.369
 21
57651.401
  0
LINE
  8
0-b
  6
CONTINUOUS
 62
    6
 10
32531.369
 20
57651.401
 11
32596.065
 21
57739.711
  0
LINE
  8
0-b
  6
CONTINUOUS
 62
    6
 10
32596.065
 20
57739.711
 11
32813.744
 21
57851.625
  0
LINE
  8
0-b
  6
CONTINUOUS
 62
    6
 10
32813.744
 20
57851.625
 11
33091.808
 21
57979.62
  0
LINE
  8
0-b
  6
CONTINUOUS
 62
    6
 10
33091.808
 20
57979.62
 11
33173.312
 21
58002.835
  0
LINE
  8
0-b
  6
CONTINUOUS
 62
    6
 10
33173.312
 20
58002.835
 11
33266.808
 21
58017.264
  0
LINE
  8
0-b
  6
CONTINUOUS
 62
    6
 10
33266.808
 20
58017.264
 11
33854.641
 21
58023.86
  0
LINE
  8
0-b
  6
CONTINUOUS
 62
    6
 10
33854.641
 20
58023.86
 11
33866.221
 21
58023.983
  0
LINE
  8
0-b
  6
CONTINUOUS
 62
    6
 10
33866.221
 20
58023.983
 11
33879.221
 21
58029.971
  0
LINE
  8
0-b
  6
CONTINUOUS
 62
    6
 10
33879.221
 20
58029.971
 11
34364.557
 21
58253.389
  0
LINE
  8
0-b
  6
CONTINUOUS
 62
    6
 10
34364.557
 20
58253.389
 11
34516.223
 21
58323.208
  0
LINE
  8
0-b
  6
CONTINUOUS
 62
    6
 10
34516.223
 20
58323.208
 11
34748.968
 21
58393.933
  0
LINE
  8
0-b
  6
CONTINUOUS
 62
    6
 10
34748.968
 20
58393.933
 11
34923.53
 21
58446.979
  0
LINE
  8
0-b
  6
CONTINUOUS
 62
    6
 10
34923.53
 20
58446.979
 11
35181.213
 21
58525.284
  0
LINE
  8
0-b
  6
CONTINUOUS
 62
    6
 10
35181.213
 20
58525.284
 11
35462.881
 21
58654.944
  0
LINE
  8
0-b
  6
CONTINUOUS
 62
    6
 10
35462.881
 20
58654.944
 11
35564.496
 21
58683.885
  0
LINE
  8
0-b
  6
CONTINUOUS
 62
    6
 10
35564.496
 20
58683.885
 11
35840.772
 21
58762.571
  0
LINE
  8
0-b
  6
CONTINUOUS
 62
    6
 10
35840.772
 20
58762.571
 11
36030.354
 21
58842.304
  0
LINE
  8
0-b
  6
CONTINUOUS
 62
    6
 10
36030.354
 20
58842.304
 11
36396.448
 21
58996.268
  0
LINE
  8
0-b
  6
CONTINUOUS
 62
    6
 10
36396.448
 20
58996.268
 11
36494.518
 21
59037.506
  0
LINE
  8
0-b
  6
CONTINUOUS
 62
    6
 10
36494.518
 20
59037.506
 11
36561.204
 21
59056.502
  0
LINE
  8
0-b
  6
CONTINUOUS
 62
    6
 10
36561.204
 20
59056.502
 11
37094.694
 21
59208.45
  0
LINE
  8
0-b
  6
CONTINUOUS
 62
    6
 10
37094.694
 20
59208.45
 11
37151.48
 21
59227.152
  0
LINE
  8
0-b
  6
CONTINUOUS
 62
    6
 10
37151.48
 20
59227.152
 11
37160.936
 21
59230.273
  0
LINE
  8
0-b
  6
CONTINUOUS
 62
    6
 10
37160.936
 20
59230.273
 11
37174.195
 21
59234.64
  0
LINE
  8
0-b
  6
CONTINUOUS
 62
    6
 10
37174.195
 20
59234.64
 11
37719.331
 21
59414.242
  0
LINE
  8
0-b
  6
CONTINUOUS
 62
    6
 10
37719.331
 20
59414.242
 11
37823.438
 21
59448.544
  0
LINE
  8
0-b
  6
CONTINUOUS
 62
    6
 10
37823.438
 20
59448.544
 11
38053.523
 21
59611.677
  0
LINE
  8
0-b
  6
CONTINUOUS
 62
    6
 10
38053.523
 20
59611.677
 11
38165.084
 21
59690.78
  0
LINE
  8
0-b
  6
CONTINUOUS
 62
    6
 10
38165.084
 20
59690.78
 11
38461.195
 21
59827.086
  0
LINE
  8
0-b
  6
CONTINUOUS
 62
    6
 10
38461.195
 20
59827.086
 11
38645.346
 21
59942.031
  0
LINE
  8
0-b
  6
CONTINUOUS
 62
    6
 10
38645.346
 20
59942.031
 11
39011.436
 21
60095.995
  0
LINE
  8
0-b
  6
CONTINUOUS
 62
    6
 10
39011.436
 20
60095.995
 11
39109.506
 21
60137.233
  0
LINE
  8
0-b
  6
CONTINUOUS
 62
    6
 10
39109.506
 20
60137.233
 11
39168.343
 21
60161.975
  0
LINE
  8
0-b
  6
CONTINUOUS
 62
    6
 10
39168.343
 20
60161.975
 11
39403.692
 21
60260.955
  0
LINE
  8
0-b
  6
CONTINUOUS
 62
    6
 10
39403.692
 20
60260.955
 11
39738.437
 21
60347.42
  0
LINE
  8
0-b
  6
CONTINUOUS
 62
    6
 10
39738.437
 20
60347.42
 11
39772.187
 21
60354.286
  0
LINE
  8
0-b
  6
CONTINUOUS
 62
    6
 10
39772.187
 20
60354.286
 11
39812.823
 21
60366.633
  0
LINE
  8
0-b
  6
CONTINUOUS
 62
    6
 10
39812.823
 20
60366.633
 11
40323.569
 21
60521.843
  0
LINE
  8
0-b
  6
CONTINUOUS
 62
    6
 10
40323.569
 20
60521.843
 11
40439.738
 21
60539.767
  0
LINE
  8
0-b
  6
CONTINUOUS
 62
    6
 10
40439.738
 20
60539.767
 11
40569.934
 21
60576.848
  0
LINE
  8
0-b
  6
CONTINUOUS
 62
    6
 10
40569.934
 20
60576.848
 11
40946.124
 21
60668.85
  0
LINE
  8
0-b
  6
CONTINUOUS
 62
    6
 10
40946.124
 20
60668.85
 11
41109.813
 21
60708.884
  0
LINE
  8
0-b
  6
CONTINUOUS
 62
    6
 10
41109.813
 20
60708.884
 11
41313.03
 21
60767.942
  0
LINE
  8
0-b
  6
CONTINUOUS
 62
    6
 10
41313.03
 20
60767.942
 11
41542.905
 21
60834.741
  0
LINE
  8
0-b
  6
CONTINUOUS
 62
    6
 10
41542.905
 20
60834.741
 11
41779.43
 21
60880.99
  0
LINE
  8
0-b
  6
CONTINUOUS
 62
    6
 10
41779.43
 20
60880.99
 11
42066.813
 21
60973.608
  0
LINE
  8
0-b
  6
CONTINUOUS
 62
    6
 10
42066.813
 20
60973.608
 11
42152.929
 21
60990.931
  0
LINE
  8
0-b
  6
CONTINUOUS
 62
    6
 10
42152.929
 20
60990.931
 11
42449.435
 21
61050.59
  0
LINE
  8
0-b
  6
CONTINUOUS
 62
    6
 10
42449.435
 20
61050.59
 11
42781.86
 21
61133.269
  0
LINE
  8
0-b
  6
CONTINUOUS
 62
    6
 10
42781.86
 20
61133.269
 11
42787.746
 21
61134.438
  0
LINE
  8
0-b
  6
CONTINUOUS
 62
    6
 10
42787.746
 20
61134.438
 11
43122.383
 21
61201.083
  0
LINE
  8
0-b
  6
CONTINUOUS
 62
    6
 10
43122.383
 20
61201.083
 11
43414.878
 21
61272.613
  0
LINE
  8
0-b
  6
CONTINUOUS
 62
    6
 10
43414.878
 20
61272.613
 11
43499.189
 21
61282.32
  0
LINE
  8
0-b
  6
CONTINUOUS
 62
    6
 10
43499.189
 20
61282.32
 11
43800.664
 21
61317.05
  0
LINE
  8
0-b
  6
CONTINUOUS
 62
    6
 10
43800.664
 20
61317.05
 11
44127.843
 21
61317.197
  0
LINE
  8
0-b
  6
CONTINUOUS
 62
    6
 10
44127.843
 20
61317.197
 11
44189.246
 21
61308.399
  0
LINE
  8
0-b
  6
CONTINUOUS
 62
    6
 10
44189.246
 20
61308.399
 11
44505.16
 21
61263.129
  0
LINE
  8
0-b
  6
CONTINUOUS
 62
    6
 10
44505.16
 20
61263.129
 11
44673.647
 21
61238.99
  0
LINE
  8
0-b
  6
CONTINUOUS
 62
    6
 10
44673.647
 20
61238.99
 11
45212.627
 21
61161.755
  0
LINE
  8
0-b
  6
CONTINUOUS
 62
    6
 10
45212.627
 20
61161.755
 11
45217.079
 21
61161.119
  0
LINE
  8
0-b
  6
CONTINUOUS
 62
    6
 10
45217.079
 20
61161.119
 11
45219.448
 21
61160.776
  0
LINE
  8
0-b
  6
CONTINUOUS
 62
    6
 10
45219.448
 20
61160.776
 11
45227.245
 21
61159.663
  0
LINE
  8
0-b
  6
CONTINUOUS
 62
    6
 10
45227.245
 20
61159.663
 11
45755.807
 21
61069.669
  0
LINE
  8
0-b
  6
CONTINUOUS
 62
    6
 10
45755.807
 20
61069.669
 11
45933.718
 21
61028.501
  0
LINE
  8
0-b
  6
CONTINUOUS
 62
    6
 10
45933.718
 20
61028.501
 11
46281.457
 21
60963.949
  0
LINE
  8
0-b
  6
CONTINUOUS
 62
    6
 10
46281.457
 20
60963.949
 11
46314.125
 21
60957.881
  0
LINE
  8
0-b
  6
CONTINUOUS
 62
    6
 10
46314.125
 20
60957.881
 11
46653.339
 21
60876.595
  0
LINE
  8
0-b
  6
CONTINUOUS
 62
    6
 10
46653.339
 20
60876.595
 11
46803.391
 21
60853.155
  0
LINE
  8
0-b
  6
CONTINUOUS
 62
    6
 10
46803.391
 20
60853.155
 11
47097.223
 21
60752.061
  0
LINE
  8
0-b
  6
CONTINUOUS
 62
    6
 10
47097.223
 20
60752.061
 11
47294.452
 21
60700.227
  0
LINE
  8
0-b
  6
CONTINUOUS
 62
    6
 10
47294.452
 20
60700.227
 11
47380.211
 21
60677.69
  0
LINE
  8
0-b
  6
CONTINUOUS
 62
    6
 10
47380.211
 20
60677.69
 11
47553.741
 21
60652.822
  0
LINE
  8
0-b
  6
CONTINUOUS
 62
    6
 10
47553.741
 20
60652.822
 11
47828.553
 21
60606.034
  0
LINE
  8
0-b
  6
CONTINUOUS
 62
    6
 10
47828.553
 20
60606.034
 11
48094.428
 21
60560.764
  0
LINE
  8
0-b
  6
CONTINUOUS
 62
    6
 10
48094.428
 20
60560.764
 11
48358.183
 21
60505.745
  0
LINE
  8
0-b
  6
CONTINUOUS
 62
    6
 10
48358.183
 20
60505.745
 11
48665.1
 21
60441.725
  0
LINE
  8
0-b
  6
CONTINUOUS
 62
    6
 10
48665.1
 20
60441.725
 11
48813.762
 21
60410.712
  0
LINE
  8
0-b
  6
CONTINUOUS
 62
    6
 10
48813.762
 20
60410.712
 11
48883.018
 21
60398.919
  0
LINE
  8
0-b
  6
CONTINUOUS
 62
    6
 10
48883.018
 20
60398.919
 11
49090.808
 21
60363.546
  0
LINE
  8
0-b
  6
CONTINUOUS
 62
    6
 10
49090.808
 20
60363.546
 11
49433.147
 21
60326.605
  0
LINE
  8
0-b
  6
CONTINUOUS
 62
    6
 10
49433.147
 20
60326.605
 11
49525.026
 21
60312.922
  0
LINE
  8
0-b
  6
CONTINUOUS
 62
    6
 10
49525.026
 20
60312.922
 11
49699.596
 21
60286.928
  0
LINE
  8
0-b
  6
CONTINUOUS
 62
    6
 10
49699.596
 20
60286.928
 11
49973.065
 21
60240.371
  0
LINE
  8
0-b
  6
CONTINUOUS
 62
    6
 10
49973.065
 20
60240.371
 11
50239.395
 21
60195.031
  0
LINE
  8
0-b
  6
CONTINUOUS
 62
    6
 10
50239.395
 20
60195.031
 11
50514.862
 21
60156.676
  0
LINE
  8
0-b
  6
CONTINUOUS
 62
    6
 10
50514.862
 20
60156.676
 11
50744.195
 21
60124.747
  0
LINE
  8
0-b
  6
CONTINUOUS
 62
    6
 10
50744.195
 20
60124.747
 11
50950.858
 21
60095.974
  0
LINE
  8
0-b
  6
CONTINUOUS
 62
    6
 10
50950.858
 20
60095.974
 11
51064.505
 21
60083.712
  0
LINE
  8
0-b
  6
CONTINUOUS
 62
    6
 10
51064.505
 20
60083.712
 11
51433.073
 21
60028.832
  0
LINE
  8
0-b
  6
CONTINUOUS
 62
    6
 10
51433.073
 20
60028.832
 11
51615.925
 21
60013.162
  0
LINE
  8
0-b
  6
CONTINUOUS
 62
    6
 10
51615.925
 20
60013.162
 11
51660.401
 21
60009.347
  0
LINE
  8
0-b
  6
CONTINUOUS
 62
    6
 10
51660.401
 20
60009.347
 11
51730.671
 21
60005.141
  0
LINE
  8
0-b
  6
CONTINUOUS
 62
    6
 10
51730.671
 20
60005.141
 11
52192.871
 21
59977.453
  0
LINE
  8
0-b
  6
CONTINUOUS
 62
    6
 10
52192.871
 20
59977.453
 11
52363.073
 21
59967.262
  0
LINE
  8
0-b
  6
CONTINUOUS
 62
    6
 10
52363.073
 20
59967.262
 11
52637.715
 21
59943.724
  0
LINE
  8
0-b
  6
CONTINUOUS
 62
    6
 10
52637.715
 20
59943.724
 11
52763.371
 21
59932.953
  0
LINE
  8
0-b
  6
CONTINUOUS
 62
    6
 10
52763.371
 20
59932.953
 11
53068.577
 21
59906.798
  0
LINE
  8
0-b
  6
CONTINUOUS
 62
    6
 10
53068.577
 20
59906.798
 11
53335.593
 21
59890.805
  0
LINE
  8
0-b
  6
CONTINUOUS
 62
    6
 10
53335.593
 20
59890.805
 11
53550.757
 21
59877.92
  0
LINE
  8
0-b
  6
CONTINUOUS
 62
    6
 10
53550.757
 20
59877.92
 11
53771.929
 21
59860.31
  0
LINE
  8
0-b
  6
CONTINUOUS
 62
    6
 10
53771.929
 20
59860.31
 11
53924.686
 21
59871.684
  0
LINE
  8
0-b
  6
CONTINUOUS
 62
    6
 10
53924.686
 20
59871.684
 11
54355.734
 21
59891.281
  0
LINE
  8
0-b
  6
CONTINUOUS
 62
    6
 10
54355.734
 20
59891.281
 11
54462.574
 21
59896.138
  0
LINE
  8
0-b
  6
CONTINUOUS
 62
    6
 10
54462.574
 20
59896.138
 11
54563.297
 21
59920.145
  0
LINE
  8
0-b
  6
CONTINUOUS
 62
    6
 10
54563.297
 20
59920.145
 11
54998.068
 21
60023.793
  0
LINE
  8
0-b
  6
CONTINUOUS
 62
    6
 10
54998.068
 20
60023.793
 11
55138.542
 21
60027.083
  0
LINE
  8
0-b
  6
CONTINUOUS
 62
    6
 10
55138.542
 20
60027.083
 11
55267.922
 21
60058.725
  0
LINE
  8
0-b
  6
CONTINUOUS
 62
    6
 10
55267.922
 20
60058.725
 11
55647.052
 21
60151.441
  0
LINE
  8
0-b
  6
CONTINUOUS
 62
    6
 10
55647.052
 20
60151.441
 11
55813.908
 21
60161.877
  0
LINE
  8
0-b
  6
CONTINUOUS
 62
    6
 10
55813.908
 20
60161.877
 11
55981.962
 21
60210.149
  0
LINE
  8
0-b
  6
CONTINUOUS
 62
    6
 10
55981.962
 20
60210.149
 11
56275.178
 21
60294.368
  0
LINE
  8
0-b
  6
CONTINUOUS
 62
    6
 10
56275.178
 20
60294.368
 11
56487.07
 21
60311.068
  0
LINE
  8
0-b
  6
CONTINUOUS
 62
    6
 10
56487.07
 20
60311.068
 11
56700.039
 21
60367.088
  0
LINE
  8
0-b
  6
CONTINUOUS
 62
    6
 10
56700.039
 20
60367.088
 11
56920.12
 21
60424.976
  0
LINE
  8
0-b
  6
CONTINUOUS
 62
    6
 10
56920.12
 20
60424.976
 11
57160.928
 21
60455.674
  0
LINE
  8
0-b
  6
CONTINUOUS
 62
    6
 10
57160.928
 20
60455.674
 11
57451.362
 21
60638.88
  0
LINE
  8
0-b
  6
CONTINUOUS
 62
    6
 10
57451.362
 20
60638.88
 11
57508.32
 21
60647.139
  0
LINE
  8
0-b
  6
CONTINUOUS
 62
    6
 10
57508.32
 20
60647.139
 11
57820.567
 21
60692.43
  0
LINE
  8
0-b
  6
CONTINUOUS
 62
    6
 10
57820.567
 20
60692.43
 11
58000.309
 21
60839.815
  0
LINE
  8
0-b
  6
CONTINUOUS
 62
    6
 10
58000.309
 20
60839.815
 11
58287.545
 21
60887.548
  0
LINE
  8
0-b
  6
CONTINUOUS
 62
    6
 10
58287.545
 20
60887.548
 11
58481.652
 21
60919.807
  0
LINE
  8
0-b
  6
CONTINUOUS
 62
    6
 10
58481.652
 20
60919.807
 11
58643.906
 21
60971.41
  0
LINE
  8
0-b
  6
CONTINUOUS
 62
    6
 10
58643.906
 20
60971.41
 11
59045.716
 21
61099.212
  0
LINE
  8
0-b
  6
CONTINUOUS
 62
    6
 10
59045.716
 20
61099.212
 11
59149.386
 21
61104.133
  0
LINE
  8
0-b
  6
CONTINUOUS
 62
    6
 10
59149.386
 20
61104.133
 11
59208.037
 21
61161.224
  0
LINE
  8
0-b
  6
CONTINUOUS
 62
    6
 10
59208.037
 20
61161.224
 11
59290.395
 21
61241.397
  0
LINE
  8
0-b
  6
CONTINUOUS
 62
    6
 10
59290.395
 20
61241.397
 11
59439.635
 21
61594.651
  0
LINE
  8
0-b
  6
CONTINUOUS
 62
    6
 10
59439.635
 20
61594.651
 11
59764.368
 21
61630.227
  0
LINE
  8
0-b
  6
CONTINUOUS
 62
    6
 10
59764.368
 20
61630.227
 11
60084.726
 21
61694.205
  0
LINE
  8
0-b
  6
CONTINUOUS
 62
    6
 10
60084.726
 20
61694.205
 11
60122.668
 21
61697.355
  0
LINE
  8
0-b
  6
CONTINUOUS
 62
    6
 10
60122.668
 20
61697.355
 11
60446.043
 21
61724.189
  0
LINE
  8
0-b
  6
CONTINUOUS
 62
    6
 10
60446.043
 20
61724.189
 11
60684.227
 21
61889.051
  0
LINE
  8
0-b
  6
CONTINUOUS
 62
    6
 10
60684.227
 20
61889.051
 11
60981.118
 21
62094.535
  0
LINE
  8
0-b
  6
CONTINUOUS
 62
    6
 10
60981.118
 20
62094.535
 11
61084.85
 21
62095.928
  0
LINE
  8
0-b
  6
CONTINUOUS
 62
    6
 10
61084.85
 20
62095.928
 11
61154.281
 21
62147.776
  0
LINE
  8
0-b
  6
CONTINUOUS
 62
    6
 10
61154.281
 20
62147.776
 11
61284.973
 21
62245.378
  0
LINE
  8
0-b
  6
CONTINUOUS
 62
    6
 10
61284.973
 20
62245.378
 11
61590.655
 21
62431.187
  0
LINE
  8
0-b
  6
CONTINUOUS
 62
    6
 10
61590.655
 20
62431.187
 11
61724.518
 21
62462.116
  0
LINE
  8
0-b
  6
CONTINUOUS
 62
    6
 10
61724.518
 20
62462.116
 11
61901.425
 21
62527.508
  0
LINE
  8
0-b
  6
CONTINUOUS
 62
    6
 10
61901.425
 20
62527.508
 11
62240.009
 21
62558.562
  0
LINE
  8
0-b
  6
CONTINUOUS
 62
    6
 10
62240.009
 20
62558.562
 11
62403.492
 21
62573.561
  0
LINE
  8
0-b
  6
CONTINUOUS
 62
    6
 10
62403.492
 20
62573.561
 11
62679.771
 21
62839.489
  0
LINE
  8
0-b
  6
CONTINUOUS
 62
    6
 10
62679.771
 20
62839.489
 11
62860.626
 21
63013.568
  0
LINE
  8
0-b
  6
CONTINUOUS
 62
    6
 10
62860.626
 20
63013.568
 11
63034.572
 21
62995.378
  0
LINE
  8
0-b
  6
CONTINUOUS
 62
    6
 10
63034.572
 20
62995.378
 11
63291.429
 21
62994.482
  0
LINE
  8
0-b
  6
CONTINUOUS
 62
    6
 10
63291.429
 20
62994.482
 11
63449.341
 21
62993.929
  0
LINE
  8
0-b
  6
CONTINUOUS
 62
    6
 10
63449.341
 20
62993.929
 11
63733.857
 21
62975.248
  0
LINE
  8
0-b
  6
CONTINUOUS
 62
    6
 10
63733.857
 20
62975.248
 11
64036.096
 21
62971.616
  0
LINE
  8
0-b
  6
CONTINUOUS
 62
    6
 10
64036.096
 20
62971.616
 11
64147.688
 21
62970.272
  0
LINE
  8
0-b
  6
CONTINUOUS
 62
    6
 10
64147.688
 20
62970.272
 11
64431.33
 21
62966.857
  0
LINE
  8
0-b
  6
CONTINUOUS
 62
    6
 10
64431.33
 20
62966.857
 11
64642.28
 21
62975.822
  0
LINE
  8
0-b
  6
CONTINUOUS
 62
    6
 10
64642.28
 20
62975.822
 11
65009.511
 21
62941.989
  0
LINE
  8
0-b
  6
CONTINUOUS
 62
    6
 10
65009.511
 20
62941.989
 11
65133.1
 21
62930.609
  0
LINE
  8
0-b
  6
CONTINUOUS
 62
    6
 10
65133.1
 20
62930.609
 11
65213.959
 21
62932.932
  0
LINE
  8
0-b
  6
CONTINUOUS
 62
    6
 10
65213.959
 20
62932.932
 11
65821.243
 21
62950.402
  0
LINE
  8
0-b
  6
CONTINUOUS
 62
    6
 10
65821.243
 20
62950.402
 11
65826.198
 21
62950.542
  0
LINE
  8
0-b
  6
CONTINUOUS
 62
    6
 10
65826.198
 20
62950.542
 11
65830.236
 21
62950.913
  0
LINE
  8
0-b
  6
CONTINUOUS
 62
    6
 10
65830.236
 20
62950.913
 11
65843.85
 21
62948.918
  0
LINE
  8
0-b
  6
CONTINUOUS
 62
    6
 10
65843.85
 20
62948.918
 11
66226.5
 21
62668.58
  0
LINE
  8
0-b
  6
CONTINUOUS
 62
    6
 10
66226.5
 20
62668.58
 11
66227.157
 21
62653.021
  0
LINE
  8
0-b
  6
CONTINUOUS
 62
    6
 10
66227.157
 20
62653.021
 11
66241.561
 21
62314.115
  0
LINE
  8
0-b
  6
CONTINUOUS
 62
    6
 10
66241.561
 20
62314.115
 11
66289.365
 21
62004.346
  0
LINE
  8
0-b
  6
CONTINUOUS
 62
    6
 10
66289.365
 20
62004.346
 11
66291.387
 21
61933.935
  0
LINE
  8
0-b
  6
CONTINUOUS
 62
    6
 10
66291.387
 20
61933.935
 11
66300.22
 21
61626.994
  0
LINE
  8
0-b
  6
CONTINUOUS
 62
    6
 10
66300.22
 20
61626.994
 11
66340.877
 21
61363.502
  0
LINE
  8
0-b
  6
CONTINUOUS
 62
    6
 10
66340.877
 20
61363.502
 11
66364.492
 21
61210.504
  0
LINE
  8
0-b
  6
CONTINUOUS
 62
    6
 10
66364.492
 20
61210.504
 11
66375.879
 21
60942.497
  0
LINE
  8
0-b
  6
CONTINUOUS
 62
    6
 10
66375.879
 20
60942.497
 11
66412.022
 21
60708.275
  0
LINE
  8
0-b
  6
CONTINUOUS
 62
    6
 10
66412.022
 20
60708.275
 11
66444.666
 21
60496.73
  0
LINE
  8
0-b
  6
CONTINUOUS
 62
    6
 10
66444.666
 20
60496.73
 11
66480.809
 21
60262.515
  0
LINE
  8
0-b
  6
CONTINUOUS
 62
    6
 10
66480.809
 20
60262.515
 11
66516.959
 21
60028.293
  0
LINE
  8
0-b
  6
CONTINUOUS
 62
    6
 10
66516.959
 20
60028.293
 11
66549.602
 21
59816.748
  0
LINE
  8
0-b
  6
CONTINUOUS
 62
    6
 10
66549.602
 20
59816.748
 11
66562.326
 21
59578.915
  0
LINE
  8
0-b
  6
CONTINUOUS
 62
    6
 10
66562.326
 20
59578.915
 11
66594.858
 21
59368.126
  0
LINE
  8
0-b
  6
CONTINUOUS
 62
    6
 10
66594.858
 20
59368.126
 11
66634.731
 21
59109.729
  0
LINE
  8
0-b
  6
CONTINUOUS
 62
    6
 10
66634.731
 20
59109.729
 11
66667.262
 21
58898.933
  0
LINE
  8
0-b
  6
CONTINUOUS
 62
    6
 10
66667.262
 20
58898.933
 11
66677.677
 21
58704.346
  0
LINE
  8
0-b
  6
CONTINUOUS
 62
    6
 10
66677.677
 20
58704.346
 11
66695.587
 21
58369.57
  0
LINE
  8
0-b
  6
CONTINUOUS
 62
    6
 10
66695.587
 20
58369.57
 11
66704.203
 21
58208.459
  0
LINE
  8
0-b
  6
CONTINUOUS
 62
    6
 10
66704.203
 20
58208.459
 11
66726.243
 21
58065.658
  0
LINE
  8
0-b
  6
CONTINUOUS
 62
    6
 10
66726.243
 20
58065.658
 11
66787.099
 21
57671.275
  0
LINE
  8
0-b
  6
CONTINUOUS
 62
    6
 10
66787.099
 20
57671.275
 11
66809.139
 21
57528.477
  0
LINE
  8
0-b
  6
CONTINUOUS
 62
    6
 10
66809.139
 20
57528.477
 11
66831.179
 21
57385.683
  0
LINE
  8
0-b
  6
CONTINUOUS
 62
    6
 10
66831.179
 20
57385.683
 11
66892.05
 21
56991.293
  0
LINE
  8
0-b
  6
CONTINUOUS
 62
    6
 10
66892.05
 20
56991.293
 11
66901.092
 21
56846.487
  0
LINE
  8
0-b
  6
CONTINUOUS
 62
    6
 10
66901.092
 20
56846.487
 11
66921.131
 21
56716.679
  0
LINE
  8
0-b
  6
CONTINUOUS
 62
    6
 10
66921.131
 20
56716.679
 11
66946.502
 21
56242.409
  0
LINE
  8
0-b
  6
CONTINUOUS
 62
    6
 10
66946.502
 20
56242.409
 11
66951.016
 21
56158.022
  0
LINE
  8
0-b
  6
CONTINUOUS
 62
    6
 10
66951.016
 20
56158.022
 11
66962.558
 21
56083.223
  0
LINE
  8
0-b
  6
CONTINUOUS
 62
    6
 10
66962.558
 20
56083.223
 11
67044.411
 21
55552.838
  0
LINE
  8
0-b
  6
CONTINUOUS
 62
    6
 10
67044.411
 20
55552.838
 11
67043.487
 21
55476.108
  0
LINE
  8
0-b
  6
CONTINUOUS
 62
    6
 10
67043.487
 20
55476.108
 11
67026.599
 21
55433.204
  0
LINE
  8
0-b
  6
CONTINUOUS
 62
    6
 10
67026.599
 20
55433.204
 11
66997.637
 21
55359.644
  0
LINE
  8
0-b
  6
CONTINUOUS
 62
    6
 10
66997.637
 20
55359.644
 11
66875.588
 21
54940.733
  0
LINE
  8
0-b
  6
CONTINUOUS
 62
    6
 10
66875.588
 20
54940.733
 11
66818.63
 21
54745.233
  0
LINE
  8
0-b
  6
CONTINUOUS
 62
    6
 10
66818.63
 20
54745.233
 11
66703.72
 21
54463.543
  0
LINE
  8
0-b
  6
CONTINUOUS
 62
    6
 10
66703.72
 20
54463.543
 11
66520.633
 21
54014.679
  0
LINE
  8
0-b
  6
CONTINUOUS
 62
    6
 10
66520.633
 20
54014.679
 11
66515.3
 21
54002.253
  0
LINE
  8
0-b
  6
CONTINUOUS
 62
    6
 10
66515.3
 20
54002.253
 11
66514.061
 21
53999.386
  0
LINE
  8
0-b
  6
CONTINUOUS
 62
    6
 10
66514.061
 20
53999.386
 11
66512.094
 21
53994.799
  0
LINE
  8
0-b
  6
CONTINUOUS
 62
    6
 10
66512.094
 20
53994.799
 11
66338.456
 21
53524.937
  0
LINE
  8
0-b
  6
CONTINUOUS
 62
    6
 10
66338.456
 20
53524.937
 11
66241.981
 21
53263.902
  0
LINE
  8
0-b
  6
CONTINUOUS
 62
    6
 10
66241.981
 20
53263.902
 11
66155.236
 21
53056.063
  0
LINE
  8
0-b
  6
CONTINUOUS
 62
    6
 10
66155.236
 20
53056.063
 11
66013.275
 21
52715.967
  0
LINE
  8
0-b
  6
CONTINUOUS
 62
    6
 10
66013.275
 20
52715.967
 11
65969.804
 21
52588.813
  0
LINE
  8
0-b
  6
CONTINUOUS
 62
    6
 10
65969.804
 20
52588.813
 11
65947.036
 21
52522.206
  0
LINE
  8
0-b
  6
CONTINUOUS
 62
    6
 10
65947.036
 20
52522.206
 11
65874.176
 21
52309.073
  0
LINE
  8
0-b
  6
CONTINUOUS
 62
    6
 10
65874.176
 20
52309.073
 11
65804.928
 21
52106.5
  0
LINE
  8
0-b
  6
CONTINUOUS
 62
    6
 10
65804.928
 20
52106.5
 11
65673.284
 21
51783.786
  0
LINE
  8
0-b
  6
CONTINUOUS
 62
    6
 10
65673.284
 20
51783.786
 11
65807.896
 21
51501.226
  0
LINE
  8
0-b
  6
CONTINUOUS
 62
    6
 10
65807.896
 20
51501.226
 11
65829.6
 21
51425.01
  0
LINE
  8
0-b
  6
CONTINUOUS
 62
    6
 10
65829.6
 20
51425.01
 11
65915.072
 21
51124.924
  0
LINE
  8
0-b
  6
CONTINUOUS
 62
    6
 10
65915.072
 20
51124.924
 11
66061.526
 21
50918.362
  0
LINE
  8
0-b
  6
CONTINUOUS
 62
    6
 10
66061.526
 20
50918.362
 11
66285.102
 21
50548.51
  0
LINE
  8
0-b
  6
CONTINUOUS
 62
    6
 10
66285.102
 20
50548.51
 11
66319.747
 21
50491.198
  0
LINE
  8
0-b
  6
CONTINUOUS
 62
    6
 10
66319.747
 20
50491.198
 11
66323.401
 21
50452.602
  0
LINE
  8
0-b
  6
CONTINUOUS
 62
    6
 10
66323.401
 20
50452.602
 11
66223.028
 21
49990.881
  0
LINE
  8
0-b
  6
CONTINUOUS
 62
    6
 10
66223.028
 20
49990.881
 11
66175.617
 21
49772.781
  0
LINE
  8
0-b
  6
CONTINUOUS
 62
    6
 10
66175.617
 20
49772.781
 11
66062.898
 21
49505.093
  0
LINE
  8
0-b
  6
CONTINUOUS
 62
    6
 10
66062.898
 20
49505.093
 11
65879.734
 21
49070.105
  0
LINE
  8
0-b
  6
CONTINUOUS
 62
    6
 10
65879.734
 20
49070.105
 11
65870.607
 21
49042.858
  0
LINE
  8
0-b
  6
CONTINUOUS
 62
    6
 10
65870.607
 20
49042.858
 11
65865.896
 21
49028.807
  0
LINE
  8
0-b
  6
CONTINUOUS
 62
    6
 10
65865.896
 20
49028.807
 11
65851.136
 21
48984.759
  0
LINE
  8
0-b
  6
CONTINUOUS
 62
    6
 10
65851.136
 20
48984.759
 11
65692.307
 21
48570.389
  0
LINE
  8
0-b
  6
CONTINUOUS
 62
    6
 10
65692.307
 20
48570.389
 11
65584.529
 21
48289.211
  0
LINE
  8
0-b
  6
CONTINUOUS
 62
    6
 10
65584.529
 20
48289.211
 11
65442.344
 21
48150.41
  0
LINE
  8
0-b
  6
CONTINUOUS
 62
    6
 10
65442.344
 20
48150.41
 11
65340.789
 21
48051.269
  0
LINE
  8
0-b
  6
CONTINUOUS
 62
    6
 10
65340.789
 20
48051.269
 11
65189.134
 21
47732.807
  0
LINE
  8
0-b
  6
CONTINUOUS
 62
    6
 10
65189.134
 20
47732.807
 11
65085.927
 21
47516.09
  0
LINE
  8
0-b
  6
CONTINUOUS
 62
    6
 10
65085.927
 20
47516.09
 11
64921.03
 21
47326.133
  0
LINE
  8
0-b
  6
CONTINUOUS
 62
    6
 10
64921.03
 20
47326.133
 11
64760.347
 21
47301.335
  0
LINE
  8
0-b
  6
CONTINUOUS
 62
    6
 10
64760.347
 20
47301.335
 11
64520.378
 21
47016.553
  0
LINE
  8
0-b
  6
CONTINUOUS
 62
    6
 10
64520.378
 20
47016.553
 11
64245.373
 21
46690.199
  0
LINE
  8
0-b
  6
CONTINUOUS
 62
    6
 10
64245.373
 20
46690.199
 11
64258.475
 21
46605.319
  0
LINE
  8
0-b
  6
CONTINUOUS
 62
    6
 10
64258.475
 20
46605.319
 11
64173.598
 21
46592.227
  0
LINE
  8
0-b
  6
CONTINUOUS
 62
    6
 10
65045.276
 20
45454.992
 11
65078.2
 21
45460.074
  0
LINE
  8
0-b
  6
CONTINUOUS
 62
    6
 10
65078.2
 20
45460.074
 11
65179.979
 21
45442.079
  0
LINE
  8
0-b
  6
CONTINUOUS
 62
    6
 10
65179.979
 20
45442.079
 11
65369.562
 21
45188.222
  0
LINE
  8
0-b
  6
CONTINUOUS
 62
    6
 10
65369.562
 20
45188.222
 11
65426.387
 21
45112.125
  0
LINE
  8
0-b
  6
CONTINUOUS
 62
    6
 10
65426.387
 20
45112.125
 11
65579.826
 21
44807.608
  0
LINE
  8
0-b
  6
CONTINUOUS
 62
    6
 10
65579.826
 20
44807.608
 11
65407.125
 21
44557.6
  0
LINE
  8
0-b
  6
CONTINUOUS
 62
    6
 10
65407.125
 20
44557.6
 11
65205.799
 21
44414.852
  0
LINE
  8
0-b
  6
CONTINUOUS
 62
    6
 10
64747.153
 20
43982.932
 11
64660.73
 21
43898.213
  0
LINE
  8
0-b
  6
CONTINUOUS
 62
    6
 10
64660.73
 20
43898.213
 11
64593.742
 21
43869.741
  0
LINE
  8
0-b
  6
CONTINUOUS
 62
    6
 10
64593.742
 20
43869.741
 11
64347.356
 21
43639.284
  0
LINE
  8
0-b
  6
CONTINUOUS
 62
    6
 10
64347.356
 20
43639.284
 11
64278.661
 21
43575.023
  0
LINE
  8
0-b
  6
CONTINUOUS
 62
    6
 10
64278.661
 20
43575.023
 11
63963.355
 21
43443.448
  0
LINE
  8
0-b
  6
CONTINUOUS
 62
    6
 10
63258.925
 20
43057.089
 11
62937.363
 21
42748.37
  0
LINE
  8
0-b
  6
CONTINUOUS
 62
    6
 10
62937.363
 20
42748.37
 11
62694.441
 21
42643.584
  0
LINE
  8
0-b
  6
CONTINUOUS
 62
    6
 10
61788.762
 20
42134.035
 11
61580.583
 21
41933.065
  0
LINE
  8
0-b
  6
CONTINUOUS
 62
    6
 10
61580.583
 20
41933.065
 11
61422.308
 21
41864.594
  0
LINE
  8
0-b
  6
CONTINUOUS
 62
    6
 10
60302.095
 20
41208.433
 11
60215.671
 21
41123.713
  0
LINE
  8
0-b
  6
CONTINUOUS
 62
    6
 10
60215.671
 20
41123.713
 11
60148.683
 21
41095.245
  0
LINE
  8
0-b
  6
CONTINUOUS
 62
    6
 10
60148.683
 20
41095.245
 11
59890.035
 21
40848.05
  0
LINE
  8
0-b
  6
CONTINUOUS
 62
    6
 10
59890.035
 20
40848.05
 11
59837.395
 21
40797.738
  0
LINE
  8
0-b
  6
CONTINUOUS
 62
    6
 10
59837.395
 20
40797.738
 11
59519.528
 21
40660.949
  0
LINE
  8
0-b
  6
CONTINUOUS
 62
    6
 10
58813.867
 20
40282.59
 11
58495.342
 21
39971.641
  0
LINE
  8
0-b
  6
CONTINUOUS
 62
    6
 10
58495.342
 20
39971.641
 11
58249.379
 21
39869.088
  0
LINE
  8
0-b
  6
CONTINUOUS
 62
    6
 10
57351.304
 20
39360.708
 11
57142.272
 21
39153.614
  0
LINE
  8
0-b
  6
CONTINUOUS
 62
    6
 10
57142.272
 20
39153.614
 11
56978.285
 21
39083.347
  0
LINE
  8
0-b
  6
CONTINUOUS
 62
    6
 10
55862.25
 20
38434.735
 11
55771.638
 21
38348.458
  0
LINE
  8
0-b
  6
CONTINUOUS
 62
    6
 10
55771.638
 20
38348.458
 11
55703.838
 21
38319.339
  0
LINE
  8
0-b
  6
CONTINUOUS
 62
    6
 10
55703.838
 20
38319.339
 11
55416.137
 21
38034.178
  0
LINE
  8
0-b
  6
CONTINUOUS
 62
    6
 10
55416.137
 20
38034.178
 11
55399.672
 21
38017.863
  0
LINE
  8
0-b
  6
CONTINUOUS
 62
    6
 10
55399.672
 20
38017.863
 11
55074.939
 21
37883.388
  0
LINE
  8
0-b
  6
CONTINUOUS
 62
    6
 10
41467.624
 20
46655.953
 11
41387.552
 21
46874.973
  0
LINE
  8
0-b
  6
CONTINUOUS
 62
    6
 10
41387.552
 20
46874.973
 11
41286.57
 21
47151.168
  0
LINE
  8
0-b
  6
CONTINUOUS
 62
    6
 10
41286.57
 20
47151.168
 11
41253.346
 21
47319.057
  0
LINE
  8
0-b
  6
CONTINUOUS
 62
    6
 10
41253.346
 20
47319.057
 11
41199.478
 21
47441.473
  0
LINE
  8
0-b
  6
CONTINUOUS
 62
    6
 10
41199.478
 20
47441.473
 11
40998.155
 21
47898.901
  0
LINE
  8
0-b
  6
CONTINUOUS
 62
    6
 10
40998.155
 20
47898.901
 11
40958.474
 21
47935.733
  0
LINE
  8
0-b
  6
CONTINUOUS
 62
    6
 10
40958.474
 20
47935.733
 11
40947.965
 21
47968.11
  0
LINE
  8
0-b
  6
CONTINUOUS
 62
    6
 10
40947.965
 20
47968.11
 11
40923.16
 21
48020.512
  0
LINE
  8
0-b
  6
CONTINUOUS
 62
    6
 10
40923.16
 20
48020.512
 11
40724.682
 21
48439.823
  0
LINE
  8
0-b
  6
CONTINUOUS
 62
    6
 10
40724.682
 20
48439.823
 11
40664.358
 21
48620.516
  0
LINE
  8
0-b
  6
CONTINUOUS
 62
    6
 10
40664.358
 20
48620.516
 11
40500.784
 21
48933.05
  0
LINE
  8
0-b
  6
CONTINUOUS
 62
    6
 10
40500.784
 20
48933.05
 11
40494.513
 21
48948.871
  0
LINE
  8
0-b
  6
CONTINUOUS
 62
    6
 10
40494.513
 20
48948.871
 11
40366.753
 21
49270.766
  0
LINE
  8
0-b
  6
CONTINUOUS
 62
    6
 10
40366.753
 20
49270.766
 11
40274.331
 21
49471.544
  0
LINE
  8
0-b
  6
CONTINUOUS
 62
    6
 10
40274.331
 20
49471.544
 11
40114.214
 21
49819.366
  0
LINE
  8
0-b
  6
CONTINUOUS
 62
    6
 10
40114.214
 20
49819.366
 11
40077.312
 21
49922.273
  0
LINE
  8
0-b
  6
CONTINUOUS
 62
    6
 10
40077.312
 20
49922.273
 11
40049.271
 21
49987.567
  0
LINE
  8
0-b
  6
CONTINUOUS
 62
    6
 10
40049.271
 20
49987.567
 11
39940.604
 21
50240.563
  0
LINE
  8
0-b
  6
CONTINUOUS
 62
    6
 10
39940.604
 20
50240.563
 11
39817.488
 21
50494.397
  0
LINE
  8
0-b
  6
CONTINUOUS
 62
    6
 10
39817.488
 20
50494.397
 11
39779.602
 21
50572.506
  0
LINE
  8
0-b
  6
CONTINUOUS
 62
    6
 10
39779.602
 20
50572.506
 11
39697.528
 21
50727.737
  0
LINE
  8
0-b
  6
CONTINUOUS
 62
    6
 10
39697.528
 20
50727.737
 11
39581.621
 21
50995.659
  0
LINE
  8
0-b
  6
CONTINUOUS
 62
    6
 10
39581.621
 20
50995.659
 11
39483.295
 21
51222.952
  0
LINE
  8
0-b
  6
CONTINUOUS
 62
    6
 10
39483.295
 20
51222.952
 11
39349.184
 21
51501.614
  0
LINE
  8
0-b
  6
CONTINUOUS
 62
    6
 10
39349.184
 20
51501.614
 11
39286.413
 21
51632.034
  0
LINE
  8
0-b
  6
CONTINUOUS
 62
    6
 10
39286.413
 20
51632.034
 11
39188.018
 21
51873.562
  0
LINE
  8
0-b
  6
CONTINUOUS
 62
    6
 10
39188.018
 20
51873.562
 11
39122.636
 21
52015.6
  0
LINE
  8
0-b
  6
CONTINUOUS
 62
    6
 10
39122.636
 20
52015.6
 11
38893.79
 21
52512.73
  0
LINE
  8
0-b
  6
CONTINUOUS
 62
    6
 10
38893.79
 20
52512.73
 11
38889.741
 21
52520.922
  0
LINE
  8
0-b
  6
CONTINUOUS
 62
    6
 10
38889.741
 20
52520.922
 11
38888.46
 21
52523.508
  0
LINE
  8
0-b
  6
CONTINUOUS
 62
    6
 10
38888.46
 20
52523.508
 11
38885.499
 21
52528.856
  0
LINE
  8
0-b
  6
CONTINUOUS
 62
    6
 10
38885.499
 20
52528.856
 11
38653.797
 21
53022.083
  0
LINE
  8
0-b
  6
CONTINUOUS
 62
    6
 10
38653.797
 20
53022.083
 11
38583.11
 21
53172.562
  0
LINE
  8
0-b
  6
CONTINUOUS
 62
    6
 10
38583.11
 20
53172.562
 11
38453.51
 21
53448.438
  0
LINE
  8
0-b
  6
CONTINUOUS
 62
    6
 10
38453.51
 20
53448.438
 11
38420.52
 21
53526.887
  0
LINE
  8
0-b
  6
CONTINUOUS
 62
    6
 10
38420.52
 20
53526.887
 11
38295.427
 21
53824.338
  0
LINE
  8
0-b
  6
CONTINUOUS
 62
    6
 10
38295.427
 20
53824.338
 11
38191.127
 21
54036.989
  0
LINE
  8
0-b
  6
CONTINUOUS
 62
    6
 10
38191.127
 20
54036.989
 11
38032.827
 21
54359.745
  0
LINE
  8
0-b
  6
CONTINUOUS
 62
    6
 10
38032.827
 20
54359.745
 11
37983.379
 21
54472.362
  0
LINE
  8
0-b
  6
CONTINUOUS
 62
    6
 10
37983.379
 20
54472.362
 11
37961.518
 21
54546.797
  0
LINE
  8
0-b
  6
CONTINUOUS
 62
    6
 10
37961.518
 20
54546.797
 11
37797.559
 21
55105.052
  0
LINE
  8
0-b
  6
CONTINUOUS
 62
    6
 10
37797.559
 20
55105.052
 11
37788.198
 21
55133.44
  0
LINE
  8
0-b
  6
CONTINUOUS
 62
    6
 10
37788.198
 20
55133.44
 11
37786.647
 21
55138.178
  0
LINE
  8
0-b
  6
CONTINUOUS
 62
    6
 10
37786.647
 20
55138.178
 11
37787.407
 21
55142.647
  0
LINE
  8
0-b
  6
CONTINUOUS
 62
    6
 10
37787.407
 20
55142.647
 11
37791.561
 21
55143.91
  0
LINE
  8
0-b
  6
CONTINUOUS
 62
    6
 10
37791.561
 20
55143.91
 11
37798.063
 21
55146.899
  0
LINE
  8
0-b
  6
CONTINUOUS
 62
    6
 10
37798.063
 20
55146.899
 11
38354.554
 21
55330.245
  0
LINE
  8
0-b
  6
CONTINUOUS
 62
    6
 10
38354.554
 20
55330.245
 11
38453.93
 21
55362.983
  0
LINE
  8
0-b
  6
CONTINUOUS
 62
    6
 10
38453.93
 20
55362.983
 11
38593.053
 21
55408.823
  0
LINE
  8
0-b
  6
CONTINUOUS
 62
    6
 10
38593.053
 20
55408.823
 11
38922.405
 21
55517.329
  0
LINE
  8
0-b
  6
CONTINUOUS
 62
    6
 10
38922.405
 20
55517.329
 11
39116.421
 21
55581.251
  0
LINE
  8
0-b
  6
CONTINUOUS
 62
    6
 10
39116.421
 20
55581.251
 11
39388.046
 21
55670.737
  0
LINE
  8
0-b
  6
CONTINUOUS
 62
    6
 10
39388.046
 20
55670.737
 11
39490.256
 21
55704.409
  0
LINE
  8
0-b
  6
CONTINUOUS
 62
    6
 10
39490.256
 20
55704.409
 11
39783.018
 21
55772.929
  0
LINE
  8
0-b
  6
CONTINUOUS
 62
    6
 10
39783.018
 20
55772.929
 11
40028.207
 21
55913.41
  0
LINE
  8
0-b
  6
CONTINUOUS
 62
    6
 10
40028.207
 20
55913.41
 11
40220.414
 21
55983.68
  0
LINE
  8
0-b
  6
CONTINUOUS
 62
    6
 10
40220.414
 20
55983.68
 11
40434.587
 21
56061.985
  0
LINE
  8
0-b
  6
CONTINUOUS
 62
    6
 10
40434.587
 20
56061.985
 11
40560.359
 21
56126.645
  0
LINE
  8
0-b
  6
CONTINUOUS
 62
    6
 10
40560.359
 20
56126.645
 11
41050.315
 21
56293.257
  0
LINE
  8
0-b
  6
CONTINUOUS
 62
    6
 10
41050.315
 20
56293.257
 11
41092.834
 21
56307.717
  0
LINE
  8
0-b
  6
CONTINUOUS
 62
    6
 10
41092.834
 20
56307.717
 11
41117.999
 21
56321.214
  0
LINE
  8
0-b
  6
CONTINUOUS
 62
    6
 10
41117.999
 20
56321.214
 11
41209.679
 21
56362.596
  0
LINE
  8
0-b
  6
CONTINUOUS
 62
    6
 10
41209.679
 20
56362.596
 11
41566.128
 21
56596.006
  0
LINE
  8
0-b
  6
CONTINUOUS
 62
    6
 10
41566.128
 20
56596.006
 11
41734.171
 21
56663.109
  0
LINE
  8
0-b
  6
CONTINUOUS
 62
    6
 10
41734.171
 20
56663.109
 11
42029.994
 21
56859.27
  0
LINE
  8
0-b
  6
CONTINUOUS
 62
    6
 10
42029.994
 20
56859.27
 11
42086.151
 21
56883.924
  0
LINE
  8
0-b
  6
CONTINUOUS
 62
    6
 10
42086.151
 20
56883.924
 11
42376.589
 21
57011.436
  0
LINE
  8
0-b
  6
CONTINUOUS
 62
    6
 10
42376.589
 20
57011.436
 11
42534.613
 21
57092.684
  0
LINE
  8
0-b
  6
CONTINUOUS
 62
    6
 10
42534.613
 20
57092.684
 11
42979.155
 21
57279.638
  0
LINE
  8
0-b
  6
CONTINUOUS
 62
    6
 10
42979.155
 20
57279.638
 11
43028.194
 21
57300.257
  0
LINE
  8
0-b
  6
CONTINUOUS
 62
    6
 10
43028.194
 20
57300.257
 11
43055.931
 21
57313.863
  0
LINE
  8
0-b
  6
CONTINUOUS
 62
    6
 10
43055.931
 20
57313.863
 11
43175.285
 21
57362.118
  0
LINE
  8
0-b
  6
CONTINUOUS
 62
    6
 10
43175.285
 20
57362.118
 11
43550.194
 21
57554.86
  0
LINE
  8
0-b
  6
CONTINUOUS
 62
    6
 10
43550.194
 20
57554.86
 11
43679.035
 21
57594.009
  0
LINE
  8
0-b
  6
CONTINUOUS
 62
    6
 10
43679.035
 20
57594.009
 11
43900.344
 21
57713.804
  0
LINE
  8
0-b
  6
CONTINUOUS
 62
    6
 10
43900.344
 20
57713.804
 11
44047.631
 21
57793.53
  0
LINE
  8
0-b
  6
CONTINUOUS
 62
    6
 10
44047.631
 20
57793.53
 11
44329.131
 21
57892.622
  0
LINE
  8
0-b
  6
CONTINUOUS
 62
    6
 10
44329.131
 20
57892.622
 11
44572.596
 21
58012.036
  0
LINE
  8
0-b
  6
CONTINUOUS
 62
    6
 10
44572.596
 20
58012.036
 11
44805.698
 21
58126.364
  0
LINE
  8
0-b
  6
CONTINUOUS
 62
    6
 10
44805.698
 20
58126.364
 11
44976.32
 21
58210.052
  0
LINE
  8
0-b
  6
CONTINUOUS
 62
    6
 10
44976.32
 20
58210.052
 11
45065.69
 21
58253.886
  0
LINE
  8
0-b
  6
CONTINUOUS
 62
    6
 10
45065.69
 20
58253.886
 11
45351.687
 21
58394.161
  0
LINE
  8
0-b
  6
CONTINUOUS
 62
    6
 10
45351.687
 20
58394.161
 11
45545.707
 21
58505.319
  0
LINE
  8
0-b
  6
CONTINUOUS
 62
    6
 10
45545.707
 20
58505.319
 11
45622.591
 21
58533.43
  0
LINE
  8
0-b
  6
CONTINUOUS
 62
    6
 10
45622.591
 20
58533.43
 11
45747.061
 21
58588.082
  0
LINE
  8
0-b
  6
CONTINUOUS
 62
    6
 10
45747.061
 20
58588.082
 11
46065.261
 21
58727.793
  0
LINE
  8
0-b
  6
CONTINUOUS
 62
    6
 10
46065.261
 20
58727.793
 11
46279.609
 21
58787.166
  0
LINE
  8
0-b
  6
CONTINUOUS
 62
    6
 10
46279.609
 20
58787.166
 11
46601.217
 21
58938.246
  0
LINE
  8
0-b
  6
CONTINUOUS
 62
    6
 10
46601.217
 20
58938.246
 11
46609.578
 21
58942.173
  0
LINE
  8
0-b
  6
CONTINUOUS
 62
    6
 10
46609.578
 20
58942.173
 11
46933.583
 21
59060.631
  0
LINE
  8
0-b
  6
CONTINUOUS
 62
    6
 10
46933.583
 20
59060.631
 11
47112.831
 21
59166.526
  0
LINE
  8
0-b
  6
CONTINUOUS
 62
    6
 10
47112.831
 20
59166.526
 11
47360.344
 21
59143.73
  0
LINE
  8
0-b
  6
CONTINUOUS
 62
    6
 10
47360.344
 20
59143.73
 11
47620.634
 21
59119.752
  0
LINE
  8
0-b
  6
CONTINUOUS
 62
    6
 10
47620.634
 20
59119.752
 11
47961.727
 21
59147.713
  0
LINE
  8
0-b
  6
CONTINUOUS
 62
    6
 10
47961.727
 20
59147.713
 11
47966.186
 21
59147.468
  0
LINE
  8
0-b
  6
CONTINUOUS
 62
    6
 10
47966.186
 20
59147.468
 11
48315.545
 21
59127.913
  0
LINE
  8
0-b
  6
CONTINUOUS
 62
    6
 10
48315.545
 20
59127.913
 11
48545.532
 21
59115.041
  0
LINE
  8
0-b
  6
CONTINUOUS
 62
    6
 10
48545.532
 20
59115.041
 11
48870.391
 21
59085.114
  0
LINE
  8
0-b
  6
CONTINUOUS
 62
    6
 10
48870.391
 20
59085.114
 11
49020.464
 21
59071.291
  0
LINE
  8
0-b
  6
CONTINUOUS
 62
    6
 10
49020.464
 20
59071.291
 11
49112.386
 21
59065.558
  0
LINE
  8
0-b
  6
CONTINUOUS
 62
    6
 10
49112.386
 20
59065.558
 11
49532.596
 21
59039.368
  0
LINE
  8
0-b
  6
CONTINUOUS
 62
    6
 10
49532.596
 20
59039.368
 11
49693.92
 21
59036.12
  0
LINE
  8
0-b
  6
CONTINUOUS
 62
    6
 10
49693.92
 20
59036.12
 11
49722.28
 21
59034.728
  0
LINE
  8
0-b
  6
CONTINUOUS
 62
    6
 10
49722.28
 20
59034.728
 11
49762.363
 21
59034.742
  0
LINE
  8
0-b
  6
CONTINUOUS
 62
    6
 10
49762.363
 20
59034.742
 11
50280.969
 21
59014.207
  0
LINE
  8
0-b
  6
CONTINUOUS
 62
    6
 10
50280.969
 20
59014.207
 11
50422.489
 21
59008.6
  0
LINE
  8
0-b
  6
CONTINUOUS
 62
    6
 10
50422.489
 20
59008.6
 11
50632.627
 21
59000.279
  0
LINE
  8
0-b
  6
CONTINUOUS
 62
    6
 10
50632.627
 20
59000.279
 11
50867.066
 21
58990.991
  0
LINE
  8
0-b
  6
CONTINUOUS
 62
    6
 10
50867.066
 20
58990.991
 11
51122.946
 21
58980.856
  0
LINE
  8
0-b
  6
CONTINUOUS
 62
    6
 10
51122.946
 20
58980.856
 11
51464.698
 21
58983.523
  0
LINE
  8
0-b
  6
CONTINUOUS
 62
    6
 10
51464.698
 20
58983.523
 11
51478.563
 21
58983.635
  0
LINE
  8
0-b
  6
CONTINUOUS
 62
    6
 10
51478.563
 20
58983.635
 11
51820.321
 21
58973.094
  0
LINE
  8
0-b
  6
CONTINUOUS
 62
    6
 10
51820.321
 20
58973.094
 11
52062.725
 21
58976.601
  0
LINE
  8
0-b
  6
CONTINUOUS
 62
    6
 10
52062.725
 20
58976.601
 11
52306.553
 21
58980.135
  0
LINE
  8
0-b
  6
CONTINUOUS
 62
    6
 10
52306.553
 20
58980.135
 11
52516.149
 21
58975.348
  0
LINE
  8
0-b
  6
CONTINUOUS
 62
    6
 10
52516.149
 20
58975.348
 11
52664.78
 21
58975.166
  0
LINE
  8
0-b
  6
CONTINUOUS
 62
    6
 10
52664.78
 20
58975.166
 11
53137.325
 21
58974.599
  0
LINE
  8
0-b
  6
CONTINUOUS
 62
    6
 10
53137.325
 20
58974.599
 11
53212.858
 21
58971.87
  0
LINE
  8
0-b
  6
CONTINUOUS
 62
    6
 10
53212.858
 20
58971.87
 11
53268.242
 21
58975.656
  0
LINE
  8
0-b
  6
CONTINUOUS
 62
    6
 10
53268.242
 20
58975.656
 11
53900.168
 21
59018.833
  0
LINE
  8
0-b
  6
CONTINUOUS
 62
    6
 10
53900.168
 20
59018.833
 11
53901.789
 21
59018.826
  0
LINE
  8
0-b
  6
CONTINUOUS
 62
    6
 10
53901.789
 20
59018.826
 11
53903.059
 21
59018.945
  0
LINE
  8
0-b
  6
CONTINUOUS
 62
    6
 10
53903.059
 20
59018.945
 11
53924.654
 21
59020.989
  0
LINE
  8
0-b
  6
CONTINUOUS
 62
    6
 10
53924.654
 20
59020.989
 11
54561.635
 21
59094.667
  0
LINE
  8
0-b
  6
CONTINUOUS
 62
    6
 10
54561.635
 20
59094.667
 11
54585.827
 21
59097.467
  0
LINE
  8
0-b
  6
CONTINUOUS
 62
    6
 10
54585.827
 20
59097.467
 11
54597.253
 21
59111.234
  0
LINE
  8
0-b
  6
CONTINUOUS
 62
    6
 10
54597.253
 20
59111.234
 11
54910.633
 21
59173.147
  0
LINE
  8
0-b
  6
CONTINUOUS
 62
    6
 10
54910.633
 20
59173.147
 11
55220.004
 21
59258.101
  0
LINE
  8
0-b
  6
CONTINUOUS
 62
    6
 10
55220.004
 20
59258.101
 11
55256.042
 21
59265.688
  0
LINE
  8
0-b
  6
CONTINUOUS
 62
    6
 10
55256.042
 20
59265.688
 11
55307.663
 21
59289.758
  0
LINE
  8
0-b
  6
CONTINUOUS
 62
    6
 10
55307.663
 20
59289.758
 11
55730.785
 21
59486.997
  0
LINE
  8
0-b
  6
CONTINUOUS
 62
    6
 10
55730.785
 20
59486.997
 11
55912.024
 21
59526.149
  0
LINE
  8
0-b
  6
CONTINUOUS
 62
    6
 10
55912.024
 20
59526.149
 11
56150.316
 21
59782.74
  0
LINE
  8
0-b
  6
CONTINUOUS
 62
    6
 10
56150.316
 20
59782.74
 11
56295.104
 21
59814.362
  0
LINE
  8
0-b
  6
CONTINUOUS
 62
    6
 10
56295.104
 20
59814.362
 11
56554.967
 21
59871.103
  0
LINE
  8
0-b
  6
CONTINUOUS
 62
    6
 10
56554.967
 20
59871.103
 11
56743.062
 21
59951.591
  0
LINE
  8
0-b
  6
CONTINUOUS
 62
    6
 10
56743.062
 20
59951.591
 11
57044.667
 21
60014.274
  0
LINE
  8
0-b
  6
CONTINUOUS
 62
    6
 10
57044.667
 20
60014.274
 11
57223.317
 21
60051.404
  0
LINE
  8
0-b
  6
CONTINUOUS
 62
    6
 10
57223.317
 20
60051.404
 11
57355.35
 21
60106.122
  0
LINE
  8
0-b
  6
CONTINUOUS
 62
    6
 10
57355.35
 20
60106.122
 11
57871.87
 21
60320.166
  0
LINE
  8
0-b
  6
CONTINUOUS
 62
    6
 10
57871.87
 20
60320.166
 11
57878.008
 21
60320.215
  0
LINE
  8
0-b
  6
CONTINUOUS
 62
    6
 10
57878.008
 20
60320.215
 11
57881.535
 21
60323.729
  0
LINE
  8
0-b
  6
CONTINUOUS
 62
    6
 10
57881.535
 20
60323.729
 11
57886.358
 21
60328.544
  0
LINE
  8
0-b
  6
CONTINUOUS
 62
    6
 10
57886.358
 20
60328.544
 11
58269.424
 21
60642.66
  0
LINE
  8
0-b
  6
CONTINUOUS
 62
    6
 10
58269.424
 20
60642.66
 11
58518.047
 21
60683.975
  0
LINE
  8
0-b
  6
CONTINUOUS
 62
    6
 10
58518.047
 20
60683.975
 11
58809.394
 21
60776.642
  0
LINE
  8
0-b
  6
CONTINUOUS
 62
    6
 10
58809.394
 20
60776.642
 11
58903.65
 21
60781.114
  0
LINE
  8
0-b
  6
CONTINUOUS
 62
    6
 10
58903.65
 20
60781.114
 11
59197.084
 21
60795.049
  0
LINE
  8
0-b
  6
CONTINUOUS
 62
    6
 10
59197.084
 20
60795.049
 11
59416.419
 21
61008.554
  0
LINE
  8
0-b
  6
CONTINUOUS
 62
    6
 10
59416.419
 20
61008.554
 11
59724.424
 21
61308.378
  0
LINE
  8
0-b
  6
CONTINUOUS
 62
    6
 10
59724.424
 20
61308.378
 11
59749.474
 21
61367.659
  0
LINE
  8
0-b
  6
CONTINUOUS
 62
    6
 10
59749.474
 20
61367.659
 11
59803.968
 21
61373.63
  0
LINE
  8
0-b
  6
CONTINUOUS
 62
    6
 10
59803.968
 20
61373.63
 11
59857.735
 21
61384.366
  0
LINE
  8
0-b
  6
CONTINUOUS
 62
    6
 10
59857.735
 20
61384.366
 11
60479.45
 21
61435.97
  0
LINE
  8
0-b
  6
CONTINUOUS
 62
    6
 10
60479.45
 20
61435.97
 11
60490.382
 21
61436.873
  0
LINE
  8
0-b
  6
CONTINUOUS
 62
    6
 10
60490.382
 20
61436.873
 11
60508.482
 21
61449.401
  0
LINE
  8
0-b
  6
CONTINUOUS
 62
    6
 10
60508.482
 20
61449.401
 11
60650.597
 21
61451.305
  0
LINE
  8
0-b
  6
CONTINUOUS
 62
    6
 10
60650.597
 20
61451.305
 11
61051.682
 21
61367.638
  0
LINE
  8
0-b
  6
CONTINUOUS
 62
    6
 10
61051.682
 20
61367.638
 11
61203.4
 21
61327.765
  0
LINE
  8
0-b
  6
CONTINUOUS
 62
    6
 10
61203.4
 20
61327.765
 11
61532.976
 21
61267.238
  0
LINE
  8
0-b
  6
CONTINUOUS
 62
    6
 10
61532.976
 20
61267.238
 11
61575.509
 21
61259.427
  0
LINE
  8
0-b
  6
CONTINUOUS
 62
    6
 10
61575.509
 20
61259.427
 11
61926.356
 21
61154.232
  0
LINE
  8
0-b
  6
CONTINUOUS
 62
    6
 10
61926.356
 20
61154.232
 11
62086.752
 21
61134.046
  0
LINE
  8
0-b
  6
CONTINUOUS
 62
    6
 10
62086.752
 20
61134.046
 11
62302.496
 21
61010.052
  0
LINE
  8
0-b
  6
CONTINUOUS
 62
    6
 10
62302.496
 20
61010.052
 11
62394.477
 21
60730.861
  0
LINE
  8
0-b
  6
CONTINUOUS
 62
    6
 10
62394.477
 20
60730.861
 11
62435.639
 21
60605.936
  0
LINE
  8
0-b
  6
CONTINUOUS
 62
    6
 10
62435.639
 20
60605.936
 11
62520.761
 21
60347.56
  0
LINE
  8
0-b
  6
CONTINUOUS
 62
    6
 10
62520.761
 20
60347.56
 11
62569.243
 21
60146.192
  0
LINE
  8
0-b
  6
CONTINUOUS
 62
    6
 10
62569.243
 20
60146.192
 11
62639.758
 21
59853.29
  0
LINE
  8
0-b
  6
CONTINUOUS
 62
    6
 10
62639.758
 20
59853.29
 11
62682.361
 21
59676.327
  0
LINE
  8
0-b
  6
CONTINUOUS
 62
    6
 10
62682.361
 20
59676.327
 11
62727.574
 21
59539.097
  0
LINE
  8
0-b
  6
CONTINUOUS
 62
    6
 10
62727.574
 20
59539.097
 11
62827.345
 21
59112.753
  0
LINE
  8
0-b
  6
CONTINUOUS
 62
    6
 10
62827.345
 20
59112.753
 11
62852.248
 21
59006.368
  0
LINE
  8
0-b
  6
CONTINUOUS
 62
    6
 10
62852.248
 20
59006.368
 11
62878.788
 21
58922.282
  0
LINE
  8
0-b
  6
CONTINUOUS
 62
    6
 10
62878.788
 20
58922.282
 11
63051.314
 21
58375.722
  0
LINE
  8
0-b
  6
CONTINUOUS
 62
    6
 10
63051.314
 20
58375.722
 11
63060.671
 21
58347.327
  0
LINE
  8
0-b
  6
CONTINUOUS
 62
    6
 10
63060.671
 20
58347.327
 11
63061.791
 21
58342.522
  0
LINE
  8
0-b
  6
CONTINUOUS
 62
    6
 10
63061.791
 20
58342.522
 11
63063.702
 21
58336.492
  0
LINE
  8
0-b
  6
CONTINUOUS
 62
    6
 10
63063.702
 20
58336.492
 11
63242.009
 21
57771.63
  0
LINE
  8
0-b
  6
CONTINUOUS
 62
    6
 10
63242.009
 20
57771.63
 11
63263.496
 21
57677.483
  0
LINE
  8
0-b
  6
CONTINUOUS
 62
    6
 10
63263.496
 20
57677.483
 11
63298.862
 21
57561.107
  0
LINE
  8
0-b
  6
CONTINUOUS
 62
    6
 10
63298.862
 20
57561.107
 11
63393.768
 21
57155.563
  0
LINE
  8
0-b
  6
CONTINUOUS
 62
    6
 10
63393.768
 20
57155.563
 11
63428.588
 21
57006.781
  0
LINE
  8
0-b
  6
CONTINUOUS
 62
    6
 10
63428.588
 20
57006.781
 11
63487.639
 21
56819.698
  0
LINE
  8
0-b
  6
CONTINUOUS
 62
    6
 10
63487.639
 20
56819.698
 11
63566.889
 21
56568.647
  0
LINE
  8
0-b
  6
CONTINUOUS
 62
    6
 10
63566.889
 20
56568.647
 11
63619.081
 21
56340.003
  0
LINE
  8
0-b
  6
CONTINUOUS
 62
    6
 10
63619.081
 20
56340.003
 11
63704.965
 21
56057.383
  0
LINE
  8
0-b
  6
CONTINUOUS
 62
    6
 10
63704.965
 20
56057.383
 11
63731.485
 21
55970.105
  0
LINE
  8
0-b
  6
CONTINUOUS
 62
    6
 10
63731.485
 20
55970.105
 11
63821.156
 21
55675.013
  0
LINE
  8
0-b
  6
CONTINUOUS
 62
    6
 10
63821.156
 20
55675.013
 11
63922.894
 21
55408.148
  0
LINE
  8
0-b
  6
CONTINUOUS
 62
    6
 10
63922.894
 20
55408.148
 11
63952.493
 21
55272.937
  0
LINE
  8
0-b
  6
CONTINUOUS
 62
    6
 10
63952.493
 20
55272.937
 11
64010.486
 21
55008.053
  0
LINE
  8
0-b
  6
CONTINUOUS
 62
    6
 10
64010.486
 20
55008.053
 11
64072.743
 21
54789.473
  0
LINE
  8
0-b
  6
CONTINUOUS
 62
    6
 10
64072.743
 20
54789.473
 11
64147.506
 21
54526.961
  0
LINE
  8
0-b
  6
CONTINUOUS
 62
    6
 10
64147.506
 20
54526.961
 11
64200.419
 21
54341.19
  0
LINE
  8
0-b
  6
CONTINUOUS
 62
    6
 10
64200.419
 20
54341.19
 11
64226
 21
54175.44
  0
LINE
  8
0-b
  6
CONTINUOUS
 62
    6
 10
64226
 20
54175.44
 11
64224.922
 21
53867.144
  0
LINE
  8
0-b
  6
CONTINUOUS
 62
    6
 10
64224.922
 20
53867.144
 11
64224.159
 21
53648.68
  0
LINE
  8
0-b
  6
CONTINUOUS
 62
    6
 10
64224.159
 20
53648.68
 11
64187.687
 21
53299.937
  0
LINE
  8
0-b
  6
CONTINUOUS
 62
    6
 10
64187.687
 20
53299.937
 11
64186.596
 21
53292.112
  0
LINE
  8
0-b
  6
CONTINUOUS
 62
    6
 10
64186.596
 20
53292.112
 11
64137.448
 21
52939.124
  0
LINE
  8
0-b
  6
CONTINUOUS
 62
    6
 10
64137.448
 20
52939.124
 11
64110.397
 21
52744.838
  0
LINE
  8
0-b
  6
CONTINUOUS
 62
    6
 10
64110.397
 20
52744.838
 11
64046.174
 21
52283.561
  0
LINE
  8
0-b
  6
CONTINUOUS
 62
    6
 10
64046.174
 20
52283.561
 11
64034.99
 21
52227.135
  0
LINE
  8
0-b
  6
CONTINUOUS
 62
    6
 10
64034.99
 20
52227.135
 11
64030.762
 21
52200.077
  0
LINE
  8
0-b
  6
CONTINUOUS
 62
    6
 10
64030.762
 20
52200.077
 11
64017.485
 21
52115.035
  0
LINE
  8
0-b
  6
CONTINUOUS
 62
    6
 10
64017.485
 20
52115.035
 11
63965.595
 21
51644.719
  0
LINE
  8
0-b
  6
CONTINUOUS
 62
    6
 10
63965.595
 20
51644.719
 11
63951.625
 21
51518.093
  0
LINE
  8
0-b
  6
CONTINUOUS
 62
    6
 10
63951.625
 20
51518.093
 11
63936.29
 21
51310.355
  0
LINE
  8
0-b
  6
CONTINUOUS
 62
    6
 10
63936.29
 20
51310.355
 11
63918.974
 21
51075.77
  0
LINE
  8
0-b
  6
CONTINUOUS
 62
    6
 10
63918.974
 20
51075.77
 11
63899.643
 21
50813.898
  0
LINE
  8
0-b
  6
CONTINUOUS
 62
    6
 10
63899.643
 20
50813.898
 11
64020.782
 21
50602.468
  0
LINE
  8
0-b
  6
CONTINUOUS
 62
    6
 10
64020.782
 20
50602.468
 11
64222.591
 21
50250.229
  0
LINE
  8
0-b
  6
CONTINUOUS
 62
    6
 10
64222.591
 20
50250.229
 11
64266.111
 21
50174.276
  0
LINE
  8
0-b
  6
CONTINUOUS
 62
    6
 10
64266.111
 20
50174.276
 11
64287.052
 21
50142.7
  0
LINE
  8
0-b
  6
CONTINUOUS
 62
    6
 10
64287.052
 20
50142.7
 11
64333.925
 21
50064.493
  0
LINE
  8
0-b
  6
CONTINUOUS
 62
    6
 10
64333.925
 20
50064.493
 11
64574.649
 21
49712.044
  0
LINE
  8
0-b
  6
CONTINUOUS
 62
    6
 10
64574.649
 20
49712.044
 11
64649.916
 21
49537.331
  0
LINE
  8
0-b
  6
CONTINUOUS
 62
    6
 10
64649.916
 20
49537.331
 11
64630.823
 21
49348.053
  0
LINE
  8
0-b
  6
CONTINUOUS
 62
    6
 10
64630.823
 20
49348.053
 11
64586.057
 21
48904.4
  0
LINE
  8
0-b
  6
CONTINUOUS
 62
    6
 10
64586.057
 20
48904.4
 11
64570.302
 21
48828.866
  0
LINE
  8
0-b
  6
CONTINUOUS
 62
    6
 10
64570.302
 20
48828.866
 11
64564.92
 21
48793.227
  0
LINE
  8
0-b
  6
CONTINUOUS
 62
    6
 10
64564.92
 20
48793.227
 11
64547.71
 21
48679.182
  0
LINE
  8
0-b
  6
CONTINUOUS
 62
    6
 10
64547.71
 20
48679.182
 11
64504.064
 21
48234.71
  0
LINE
  8
0-b
  6
CONTINUOUS
 62
    6
 10
64504.064
 20
48234.71
 11
64492.872
 21
48120.745
  0
LINE
  8
0-b
  6
CONTINUOUS
 62
    6
 10
64492.872
 20
48120.745
 11
64492.949
 21
47954.095
  0
LINE
  8
0-b
  6
CONTINUOUS
 62
    6
 10
64492.949
 20
47954.095
 11
64450.234
 21
47671.044
  0
LINE
  8
0-b
  6
CONTINUOUS
 62
    6
 10
64450.234
 20
47671.044
 11
64411.138
 21
47411.948
  0
LINE
  8
0-b
  6
CONTINUOUS
 62
    6
 10
64411.138
 20
47411.948
 11
64225.405
 21
47232.651
  0
LINE
  8
0-b
  6
CONTINUOUS
 62
    6
 10
64225.405
 20
47232.651
 11
64094.3
 21
47106.084
  0
LINE
  8
0-8
  6
CONTINUOUS
 62
    2
 10
47361.128
 20
54085.268
 11
47353.531
 21
54146.047
  0
LINE
  8
0-8
  6
CONTINUOUS
 62
    2
 10
47353.531
 20
54146.047
 11
47330.976
 21
54204.975
  0
LINE
  8
0-8
  6
CONTINUOUS
 62
    2
 10
47330.976
 20
54204.975
 11
47294.14
 21
54260.268
  0
LINE
  8
0-8
  6
CONTINUOUS
 62
    2
 10
47294.14
 20
54260.268
 11
47244.153
 21
54310.241
  0
LINE
  8
0-8
  6
CONTINUOUS
 62
    2
 10
47244.153
 20
54310.241
 11
47182.524
 21
54353.382
  0
LINE
  8
0-8
  6
CONTINUOUS
 62
    2
 10
47182.524
 20
54353.382
 11
47111.127
 21
54388.378
  0
LINE
  8
0-8
  6
CONTINUOUS
 62
    2
 10
47111.127
 20
54388.378
 11
47032.139
 21
54414.155
  0
LINE
  8
0-8
  6
CONTINUOUS
 62
    2
 10
47032.139
 20
54414.155
 11
46947.952
 21
54429.948
  0
LINE
  8
0-8
  6
CONTINUOUS
 62
    2
 10
46947.952
 20
54429.948
 11
46861.129
 21
54435.264
  0
LINE
  8
0-8
  6
CONTINUOUS
 62
    2
 10
46861.129
 20
54435.264
 11
46774.303
 21
54429.948
  0
LINE
  8
0-8
  6
CONTINUOUS
 62
    2
 10
46774.303
 20
54429.948
 11
46690.112
 21
54414.155
  0
LINE
  8
0-8
  6
CONTINUOUS
 62
    2
 10
46690.112
 20
54414.155
 11
46611.128
 21
54388.378
  0
LINE
  8
0-8
  6
CONTINUOUS
 62
    2
 10
46611.128
 20
54388.378
 11
46539.734
 21
54353.382
  0
LINE
  8
0-8
  6
CONTINUOUS
 62
    2
 10
46539.734
 20
54353.382
 11
46478.105
 21
54310.241
  0
LINE
  8
0-8
  6
CONTINUOUS
 62
    2
 10
46478.105
 20
54310.241
 11
46428.118
 21
54260.268
  0
LINE
  8
0-8
  6
CONTINUOUS
 62
    2
 10
46428.118
 20
54260.268
 11
46391.282
 21
54204.975
  0
LINE
  8
0-8
  6
CONTINUOUS
 62
    2
 10
46391.282
 20
54204.975
 11
46368.728
 21
54146.047
  0
LINE
  8
0-8
  6
CONTINUOUS
 62
    2
 10
46368.728
 20
54146.047
 11
46361.13
 21
54085.268
  0
LINE
  8
0-8
  6
CONTINUOUS
 62
    2
 10
46361.13
 20
54085.268
 11
46368.728
 21
54024.492
  0
LINE
  8
0-8
  6
CONTINUOUS
 62
    2
 10
46368.728
 20
54024.492
 11
46391.282
 21
53965.564
  0
LINE
  8
0-8
  6
CONTINUOUS
 62
    2
 10
46391.282
 20
53965.564
 11
46428.118
 21
53910.268
  0
LINE
  8
0-8
  6
CONTINUOUS
 62
    2
 10
46428.118
 20
53910.268
 11
46478.105
 21
53860.292
  0
LINE
  8
0-8
  6
CONTINUOUS
 62
    2
 10
46478.105
 20
53860.292
 11
46539.734
 21
53817.153
  0
LINE
  8
0-8
  6
CONTINUOUS
 62
    2
 10
46539.734
 20
53817.153
 11
46611.128
 21
53782.155
  0
LINE
  8
0-8
  6
CONTINUOUS
 62
    2
 10
46611.128
 20
53782.155
 11
46690.112
 21
53756.374
  0
LINE
  8
0-8
  6
CONTINUOUS
 62
    2
 10
46690.112
 20
53756.374
 11
46774.303
 21
53740.584
  0
LINE
  8
0-8
  6
CONTINUOUS
 62
    2
 10
46774.303
 20
53740.584
 11
46861.129
 21
53735.268
  0
LINE
  8
0-8
  6
CONTINUOUS
 62
    2
 10
46861.129
 20
53735.268
 11
46947.952
 21
53740.584
  0
LINE
  8
0-8
  6
CONTINUOUS
 62
    2
 10
46947.952
 20
53740.584
 11
47032.139
 21
53756.374
  0
LINE
  8
0-8
  6
CONTINUOUS
 62
    2
 10
47032.139
 20
53756.374
 11
47111.127
 21
53782.155
  0
LINE
  8
0-8
  6
CONTINUOUS
 62
    2
 10
47111.127
 20
53782.155
 11
47182.524
 21
53817.153
  0
LINE
  8
0-8
  6
CONTINUOUS
 62
    2
 10
47182.524
 20
53817.153
 11
47244.153
 21
53860.292
  0
LINE
  8
0-8
  6
CONTINUOUS
 62
    2
 10
47244.153
 20
53860.292
 11
47294.14
 21
53910.268
  0
LINE
  8
0-8
  6
CONTINUOUS
 62
    2
 10
47294.14
 20
53910.268
 11
47330.976
 21
53965.564
  0
LINE
  8
0-8
  6
CONTINUOUS
 62
    2
 10
47330.976
 20
53965.564
 11
47353.531
 21
54024.492
  0
LINE
  8
0-8
  6
CONTINUOUS
 62
    2
 10
47353.531
 20
54024.492
 11
47361.128
 21
54085.268
  0
LINE
  8
0-8
  6
CONTINUOUS
 62
    2
 10
45103.905
 20
44995.749
 11
45096.311
 21
45056.528
  0
LINE
  8
0-8
  6
CONTINUOUS
 62
    2
 10
45096.311
 20
45056.528
 11
45073.753
 21
45115.456
  0
LINE
  8
0-8
  6
CONTINUOUS
 62
    2
 10
45073.753
 20
45115.456
 11
45036.92
 21
45170.749
  0
LINE
  8
0-8
  6
CONTINUOUS
 62
    2
 10
45036.92
 20
45170.749
 11
44986.93
 21
45220.722
  0
LINE
  8
0-8
  6
CONTINUOUS
 62
    2
 10
44986.93
 20
45220.722
 11
44925.304
 21
45263.863
  0
LINE
  8
0-8
  6
CONTINUOUS
 62
    2
 10
44925.304
 20
45263.863
 11
44853.91
 21
45298.859
  0
LINE
  8
0-8
  6
CONTINUOUS
 62
    2
 10
44853.91
 20
45298.859
 11
44774.912
 21
45324.639
  0
LINE
  8
0-8
  6
CONTINUOUS
 62
    2
 10
44774.912
 20
45324.639
 11
44690.735
 21
45340.429
  0
LINE
  8
0-8
  6
CONTINUOUS
 62
    2
 10
44690.735
 20
45340.429
 11
44603.909
 21
45345.745
  0
LINE
  8
0-8
  6
CONTINUOUS
 62
    2
 10
44603.909
 20
45345.745
 11
44517.086
 21
45340.429
  0
LINE
  8
0-8
  6
CONTINUOUS
 62
    2
 10
44517.086
 20
45340.429
 11
44432.899
 21
45324.639
  0
LINE
  8
0-8
  6
CONTINUOUS
 62
    2
 10
44432.899
 20
45324.639
 11
44353.911
 21
45298.859
  0
LINE
  8
0-8
  6
CONTINUOUS
 62
    2
 10
44353.911
 20
45298.859
 11
44282.514
 21
45263.863
  0
LINE
  8
0-8
  6
CONTINUOUS
 62
    2
 10
44282.514
 20
45263.863
 11
44220.885
 21
45220.722
  0
LINE
  8
0-8
  6
CONTINUOUS
 62
    2
 10
44220.885
 20
45220.722
 11
44170.894
 21
45170.749
  0
LINE
  8
0-8
  6
CONTINUOUS
 62
    2
 10
44170.894
 20
45170.749
 11
44134.062
 21
45115.456
  0
LINE
  8
0-8
  6
CONTINUOUS
 62
    2
 10
44134.062
 20
45115.456
 11
44111.504
 21
45056.528
  0
LINE
  8
0-8
  6
CONTINUOUS
 62
    2
 10
44111.504
 20
45056.528
 11
44103.91
 21
44995.749
  0
LINE
  8
0-8
  6
CONTINUOUS
 62
    2
 10
44103.91
 20
44995.749
 11
44111.504
 21
44934.973
  0
LINE
  8
0-8
  6
CONTINUOUS
 62
    2
 10
44111.504
 20
44934.973
 11
44134.062
 21
44876.038
  0
LINE
  8
0-8
  6
CONTINUOUS
 62
    2
 10
44134.062
 20
44876.038
 11
44170.894
 21
44820.749
  0
LINE
  8
0-8
  6
CONTINUOUS
 62
    2
 10
44170.894
 20
44820.749
 11
44220.885
 21
44770.773
  0
LINE
  8
0-8
  6
CONTINUOUS
 62
    2
 10
44220.885
 20
44770.773
 11
44282.514
 21
44727.631
  0
LINE
  8
0-8
  6
CONTINUOUS
 62
    2
 10
44282.514
 20
44727.631
 11
44353.911
 21
44692.639
  0
LINE
  8
0-8
  6
CONTINUOUS
 62
    2
 10
44353.911
 20
44692.639
 11
44432.899
 21
44666.855
  0
LINE
  8
0-8
  6
CONTINUOUS
 62
    2
 10
44432.899
 20
44666.855
 11
44517.086
 21
44651.065
  0
LINE
  8
0-8
  6
CONTINUOUS
 62
    2
 10
44517.086
 20
44651.065
 11
44603.909
 21
44645.749
  0
LINE
  8
0-8
  6
CONTINUOUS
 62
    2
 10
44603.909
 20
44645.749
 11
44690.735
 21
44651.065
  0
LINE
  8
0-8
  6
CONTINUOUS
 62
    2
 10
44690.735
 20
44651.065
 11
44774.912
 21
44666.855
  0
LINE
  8
0-8
  6
CONTINUOUS
 62
    2
 10
44774.912
 20
44666.855
 11
44853.91
 21
44692.639
  0
LINE
  8
0-8
  6
CONTINUOUS
 62
    2
 10
44853.91
 20
44692.639
 11
44925.304
 21
44727.631
  0
LINE
  8
0-8
  6
CONTINUOUS
 62
    2
 10
44925.304
 20
44727.631
 11
44986.93
 21
44770.773
  0
LINE
  8
0-8
  6
CONTINUOUS
 62
    2
 10
44986.93
 20
44770.773
 11
45036.92
 21
44820.749
  0
LINE
  8
0-8
  6
CONTINUOUS
 62
    2
 10
45036.92
 20
44820.749
 11
45073.753
 21
44876.038
  0
LINE
  8
0-8
  6
CONTINUOUS
 62
    2
 10
45073.753
 20
44876.038
 11
45096.311
 21
44934.973
  0
LINE
  8
0-8
  6
CONTINUOUS
 62
    2
 10
45096.311
 20
44934.973
 11
45103.905
 21
44995.749
  0
LINE
  8
0-8
  6
CONTINUOUS
 62
    2
 10
57275.316
 20
39291.089
 11
57267.722
 21
39351.864
  0
LINE
  8
0-8
  6
CONTINUOUS
 62
    2
 10
57267.722
 20
39351.864
 11
57245.164
 21
39410.796
  0
LINE
  8
0-8
  6
CONTINUOUS
 62
    2
 10
57245.164
 20
39410.796
 11
57208.328
 21
39466.088
  0
LINE
  8
0-8
  6
CONTINUOUS
 62
    2
 10
57208.328
 20
39466.088
 11
57158.338
 21
39516.061
  0
LINE
  8
0-8
  6
CONTINUOUS
 62
    2
 10
57158.338
 20
39516.061
 11
57096.712
 21
39559.203
  0
LINE
  8
0-8
  6
CONTINUOUS
 62
    2
 10
57096.712
 20
39559.203
 11
57025.315
 21
39594.195
  0
LINE
  8
0-8
  6
CONTINUOUS
 62
    2
 10
57025.315
 20
39594.195
 11
56946.327
 21
39619.979
  0
LINE
  8
0-8
  6
CONTINUOUS
 62
    2
 10
56946.327
 20
39619.979
 11
56862.14
 21
39635.769
  0
LINE
  8
0-8
  6
CONTINUOUS
 62
    2
 10
56862.14
 20
39635.769
 11
56775.317
 21
39641.088
  0
LINE
  8
0-8
  6
CONTINUOUS
 62
    2
 10
56775.317
 20
39641.088
 11
56688.491
 21
39635.769
  0
LINE
  8
0-8
  6
CONTINUOUS
 62
    2
 10
56688.491
 20
39635.769
 11
56604.307
 21
39619.979
  0
LINE
  8
0-8
  6
CONTINUOUS
 62
    2
 10
56604.307
 20
39619.979
 11
56525.316
 21
39594.195
  0
LINE
  8
0-8
  6
CONTINUOUS
 62
    2
 10
56525.316
 20
39594.195
 11
56453.922
 21
39559.203
  0
LINE
  8
0-8
  6
CONTINUOUS
 62
    2
 10
56453.922
 20
39559.203
 11
56392.296
 21
39516.061
  0
LINE
  8
0-8
  6
CONTINUOUS
 62
    2
 10
56392.296
 20
39516.061
 11
56342.306
 21
39466.088
  0
LINE
  8
0-8
  6
CONTINUOUS
 62
    2
 10
56342.306
 20
39466.088
 11
56305.473
 21
39410.796
  0
LINE
  8
0-8
  6
CONTINUOUS
 62
    2
 10
56305.473
 20
39410.796
 11
56282.909
 21
39351.864
  0
LINE
  8
0-8
  6
CONTINUOUS
 62
    2
 10
56282.909
 20
39351.864
 11
56275.315
 21
39291.089
  0
LINE
  8
0-8
  6
CONTINUOUS
 62
    2
 10
56275.315
 20
39291.089
 11
56282.909
 21
39230.313
  0
LINE
  8
0-8
  6
CONTINUOUS
 62
    2
 10
56282.909
 20
39230.313
 11
56305.473
 21
39171.381
  0
LINE
  8
0-8
  6
CONTINUOUS
 62
    2
 10
56305.473
 20
39171.381
 11
56342.306
 21
39116.089
  0
LINE
  8
0-8
  6
CONTINUOUS
 62
    2
 10
56342.306
 20
39116.089
 11
56392.296
 21
39066.112
  0
LINE
  8
0-8
  6
CONTINUOUS
 62
    2
 10
56392.296
 20
39066.112
 11
56453.922
 21
39022.974
  0
LINE
  8
0-8
  6
CONTINUOUS
 62
    2
 10
56453.922
 20
39022.974
 11
56525.316
 21
38987.979
  0
LINE
  8
0-8
  6
CONTINUOUS
 62
    2
 10
56525.316
 20
38987.979
 11
56604.307
 21
38962.194
  0
LINE
  8
0-8
  6
CONTINUOUS
 62
    2
 10
56604.307
 20
38962.194
 11
56688.491
 21
38946.405
  0
LINE
  8
0-8
  6
CONTINUOUS
 62
    2
 10
56688.491
 20
38946.405
 11
56775.317
 21
38941.089
  0
LINE
  8
0-8
  6
CONTINUOUS
 62
    2
 10
56775.317
 20
38941.089
 11
56862.14
 21
38946.405
  0
LINE
  8
0-8
  6
CONTINUOUS
 62
    2
 10
56862.14
 20
38946.405
 11
56946.327
 21
38962.194
  0
LINE
  8
0-8
  6
CONTINUOUS
 62
    2
 10
56946.327
 20
38962.194
 11
57025.315
 21
38987.979
  0
LINE
  8
0-8
  6
CONTINUOUS
 62
    2
 10
57025.315
 20
38987.979
 11
57096.712
 21
39022.974
  0
LINE
  8
0-8
  6
CONTINUOUS
 62
    2
 10
57096.712
 20
39022.974
 11
57158.338
 21
39066.112
  0
LINE
  8
0-8
  6
CONTINUOUS
 62
    2
 10
57158.338
 20
39066.112
 11
57208.328
 21
39116.089
  0
LINE
  8
0-8
  6
CONTINUOUS
 62
    2
 10
57208.328
 20
39116.089
 11
57245.164
 21
39171.381
  0
LINE
  8
0-8
  6
CONTINUOUS
 62
    2
 10
57245.164
 20
39171.381
 11
57267.722
 21
39230.313
  0
LINE
  8
0-8
  6
CONTINUOUS
 62
    2
 10
57267.722
 20
39230.313
 11
57275.316
 21
39291.089
  0
ARC
  8
0-5
  6
DASHED1
 62
    3
 10
44842.687
 20
57541.898
 40
5000.0001
 50
89.038131
 51
146.29756
  0
ARC
  8
0-5
  6
DASHED1
 62
    3
 10
38069.824
 20
47387.35
 40
5000.0001
 50
146.29754
 51
180.00405
  0
ARC
  8
0-5
  6
DASHED1
 62
    3
 10
61246.43
 20
57266.497
 40
5000.0001
 50
32.012786
 51
89.038055
  0
ARC
  8
0-5
  6
DASHED1
 62
    3
 10
44842.684
 20
57541.905
 40
10000
 50
89.038116
 51
146.29756
  0
ARC
  8
0-5
  6
DASHED1
 62
    3
 10
38069.824
 20
47387.35
 40
10000
 50
146.29754
 51
180.00405
  0
ARC
  8
0-5
  6
DASHED1
 62
    3
 10
61246.437
 20
57266.501
 40
10000
 50
32.012847
 51
89.038131
  0
ARC
  8
0-5
  6
DASHED1
 62
    3
 10
82498.342
 20
23273.361
 40
10000
 50
270
 51
32.012847
  0
ARC
  8
0-5
  6
DASHED1
 62
    3
 10
38071.542
 20
23273.359
 40
10000
 50
180.00404
 51
269.99995
  0
ARC
  8
0-5
  6
DASHED1
 62
    3
 10
38071.546
 20
23273.359
 40
5000.0001
 50
180.00404
 51
270
  0
ARC
  8
0-5
  6
DASHED1
 62
    3
 10
82498.335
 20
23273.359
 40
5000.0001
 50
270
 51
32.012832
  0
ARC
  8
0-2
  6
CONTINUOUS
 62
    4
 10
76091.173
 20
39181.057
 40
23265.839
 50
98.772811
 51
122.01286
  0
TEXT
  8
0-8
 10
46736.13
 20
53835.267
 40
500
 41
1
 50
0
  1
1
  0
TEXT
  8
0-8
 10
47156.12
 20
52106.819
 40
500
 41
1
 50
27.376174
  1
21.977
  0
TEXT
  8
0-8
 10
44478.91
 20
44745.741
 40
500
 41
1
 50
0
  1
2
  0
TEXT
  8
0-8
 10
47349.678
 20
43251.179
 40
500
 41
1
 50
54.4057
  1
33.407
  0
TEXT
  8
0-8
 10
56650.315
 20
39041.084
 40
500
 41
1
 50
0
  1
3
  0
TEXT
  8
0-8
 10
55577.538
 20
30373.357
 40
500
 41
1
 50
0.3013
  1
36.513
  0
TEXT
  8
0-8
 10
57670.876
 20
43049.946
 40
500
 41
1
 50
89.999725
  1
27.053
  0
TEXT
  8
0-8
 10
41587.065
 20
44962.612
 40
500
 41
1
 50
324.07626
  1
10.042
  0
TEXT
  8
0-8
 10
46004.558
 20
55471.713
 40
500
 41
1
 50
296.888
  1
5.994
  0
TEXT
  8
0-0
 10
50814.28
 20
23523.359
 40
500
 41
1
 50
90
  1
12.000
  0
TEXT
  8
0-1
 10
43198.924
 20
43690.09
 40
500
 41
1
 50
32.012969
  1
8.700
  0
TEXT
  8
0-1
 10
58461.649
 20
53232.071
 40
500
 41
1
 50
212.01252
  1
8.700
  0
TEXT
  8
0-1
 10
63232.637
 20
45600.715
 40
500
 41
1
 50
212.01225
  1
8.700
  0
TEXT
  8
0-1
 10
47969.923
 20
36058.731
 40
500
 41
1
 50
32.012969
  1
8.700
  0
TEXT
  8
0-1
 10
45584.422
 20
39874.411
 40
500
 41
1
 50
32.012832
  1
10.500
  0
TEXT
  8
0-1
 10
60847.143
 20
49416.395
 40
500
 41
1
 50
212.01298
  1
10.500
  0
TEXT
  8
0-2
 10
43198.924
 20
43690.09
 40
500
 41
1
 50
32.012832
  1
13.050
  0
TEXT
  8
0-2
 10
46675.435
 20
45863.542
 40
500
 41
1
 50
212.0126
  1
13.050
  0
TEXT
  8
0-4
 10
47969.923
 20
36058.731
 40
500
 41
1
 50
32.012893
  1
6.900,5.400
  0
TEXT
  8
0-4
 10
63232.637
 20
45600.712
 40
500
 41
1
 50
212.01249
  1
6.900,5.400
  0
TEXT
  8
0-4
 10
64027.802
 20
44328.816
 40
500
 41
1
 50
212.01237
  1
6.900,5.400
  0
TEXT
  8
0-3
 10
47969.923
 20
36058.731
 40
500
 41
1
 50
32.012893
  1
4.000,2.500
  0
TEXT
  8
0-3
 10
64027.802
 20
44328.816
 40
500
 41
1
 50
212.01237
  1
4.000,2.500
  0
TEXT
  8
0-3
 10
48765.084
 20
34786.839
 40
500
 41
1
 50
32.012893
  1
4.000,2.500
  0
TEXT
  8
0-3
 10
63232.637
 20
45600.712
 40
500
 41
1
 50
212.01249
  1
4.000,2.500
  0
TEXT
  8
0-4
 10
48765.084
 20
34786.839
 40
500
 41
1
 50
32.012893
  1
6.900,5.400
  0
TEXT
  8
0-5
 10
70945.143
 20
72526.947
 40
500
 41
1
 50
278.77223
  1
8.77283
  0
TEXT
  8
0-5
 10
70389.981
 20
72846.004
 40
500
 41
1
 50
8.7723236
  1
真北
  0
TEXT
  8
0-2
 10
66660.396
 20
60603.325
 40
500
 41
1
 50
20.392745
  1
23ﾟ14'24.2"
  0
TEXT
  8
0-0
 10
70862.68
 20
40706.002
 40
500
 41
1
 50
32.012802
  1
6.000
  0
TEXT
  8
0-2
 10
42138.707
 20
45385.944
 40
500
 41
1
 50
32.012832
  1
13.050
  0
TEXT
  8
0-2
 10
45615.214
 20
47559.399
 40
500
 41
1
 50
212.01246
  1
13.050
  0
TEXT
  8
0-a
 10
40731.643
 20
39840.284
 40
600
 41
1
 50
211.89155
  1
8.0
  0
TEXT
  8
0-a
 10
45919.937
 20
37888.885
 40
600
 41
1
 50
211.90579
  1
9.0
  0
TEXT
  8
0-a
 10
47559.466
 20
37448.777
 40
600
 41
1
 50
211.78132
  1
10.0
  0
TEXT
  8
0-a
 10
36394.925
 20
61211.217
 40
600
 41
1
 50
31.99678
  1
11.0
  0
TEXT
  8
0-a
 10
40862.094
 20
61436.488
 40
600
 41
1
 50
31.99678
  1
12.0
  0
TEXT
  8
0-a
 10
47944.069
 20
63672.812
 40
600
 41
1
 50
302.07434
  1
13.0
  0
TEXT
  8
0-a
 10
53327.964
 20
66195.459
 40
600
 41
1
 50
302.014
  1
14.0
  0
TEXT
  8
0-a
 10
62564.218
 20
72087.948
 40
600
 41
1
 50
302.01426
  1
15.0
  0
TEXT
  8
0-a
 10
91801.807
 20
93948.67
 40
600
 41
1
 50
302.01426
  1
16.0
  0
TEXT
  8
0-b
 10
39225.476
 20
60447.156
 40
600
 41
1
 50
11.499542
  1
2.0
  0
TEXT
  8
0-b
 10
59257.912
 20
61515.003
 40
600
 41
1
 50
6.2521514
  1
3.0
  0
POINT
  8
0-0
 62
    4
 10
50914.285
 20
18273.36
  0
POINT
  8
0-2
 62
    4
 10
72542.723
 20
62174.701
  0
POINT
  8
0-2
 62
    4
 10
63757.717
 20
58908.829
  0
ENDSEC
  0
EOF
